Lessons/Tabs are sorted alphabetically.

Tab Vault

PROBLEM WITH THIS TAB?   VIEW FULL SCREEN   PRINT

Astronomy

Metallica
Astronomy by Metallica





                         Astronomy 








e--0-0-------\
B--0-0-0-----\
G--0-0--2-0--\ repeat about 8 times
D--2-2-------\
A--2-2-------\
E--0-0-------\

verse chords:
e--0--2--0-----0\\-0--3--0---\\-0--2--0-----0\\
B--0--3--1--0--0\\-1--3--1---\\-0--3--1--0--0\\
G--0--2--0--0--0\\-0--0--0--4\\-0--2--0--0--0\\    repeat
D--2--0--2--0--2\\-2--0--2--4\\-2--0--2--0--2\\
A--2-----3--2--2\\-3-----3--2\\-2-----3--2--2\\
E--0-----------0\\----3------\\-0-----------0\\

riff with harmony:
D--9-7--7------9-7--7----\\B--5-3-5-5--------------------\\
A-----10-10-9-----10-10-7\\G---------4-4-7--5-4-2-5-4-2-4\\

play C5 and D5 leading up to the chorus
Chorus:
e-------------------------\\
B-------------------------\\
G--9--9-9--5-5--7-7-7--9-9\\
D--9--9-9--5-5--7-7-7--9-9\\
A--7--7-7--3-3--5-5-5--7-7\\
E--0-0--0--------------0-0\\

play verse
play chorus

outro chorus:
e-------------------------\\
B-------------------------\\
G--9--9-9--7-7--5-5-5--7-7\\
D--9--9-9--7-7--5-5-5--7-7\\
A--7--7-7--5-5--3-3-3--5-5\\
E--0-0--0-----------------\\








Clock strikes twelve and moondrops burst 
Out at you from their hiding place 
Like acid and oil on a madman's face 
His reason tends to fly away 
Like lesser birds on the four winds 
Like silver scrapes in May 
And now the sand's become a crust 
Most of you have gone away 

Come Susie dear, let's take a walk 
Just out there upon the beach 
I know you'll soon be married 
And you'll want to know where winds come from 
Well it's never said at all 
On the map that Carrie reads 
Behind the clock back there you know 
At the Four Winds Bar 

Hey! Hey! Hey! Hey! 

Four winds at the Four Winds Bar 
Two doors locked and windows barred 
One door to let to take you in 
The other one just mirrors it 

Hey! Hey! Hey! Hey! 

Hellish glare and inference 
The other one's a duplicate 
The Queenly flux, eternal light 
Or the light that never warms 
Yes the light that never, never warms 
Or the light that never 
Never warms 
Never warms 
Never warms 

The clock strikes twelve and moondrops burst 
Out at you from their hiding place 
Miss Carrie nurse and Susie dear 
Would find themselves at Four Winds Bar 

It's the nexus of the crisis 
And the origin of storms 
Just the place to hopelessly 
Encounter time and then came me 

Hey! Hey! Hey! Hey! 

Call me Desdinova 
Eternal light 
These gravely digs of mine 
Will surely prove a sight 
And don't forget my dog 
Fixed and consequent 

Astronomy...a star










---------------


version 2 







Tuned 1/2 step down Eb Bb Gb Db Ab Eb
                 or D# A# F# C# G# D#






#'s mean you fingers for these diagrams, 1 is your index finger and 2 is your
middle finger so on and so forth...

    Em      D     G(diff)    C           B5
  0--000  XX0---  -X00-X   ---0-0      ------
  ||||||  ||||||  ||||||   ||||1|  (2) |1||||
  ------  ------  ------   ------      ------
  |12|||  |||1|2  ||||||   ||2|||      ||||||
  ------  ------  ------   ------      ------
  ||||||  ||||3|  2|||3|   |3||||      ||34||
  ------  ------  ------   ------      ------

wait for 6 measures for the drums to get done and then...

(* = this on the G string: G-4-2-0- towards the end of the measure)

 | 4/4 | Em*| Em*| Em*| Em*| Em*| Em*|

 | Em D | 2/4 | C B5 | 4/4 | Em*|

 | Em D | 2/4 | C B5 | 4/4 | Em*|

 | C G | C B5 | Em D | 2/4 | C B5 | 4/4 | Em*| Em*| Em*| Em*|

 | Em D | 2/4 | C B5 | 4/4 | Em*|

 | Em D | 2/4 | C B5 | 4/4 | Em*|

 | C G | C B5 | Em D | 2/4 | C B5 | 4/4 | Em*| Em*|


 


guitar 1
|---------------|---------------|---------------|---------------|
|---------------|---------------|---------------|---------------|
|---------------|---------------|---------------|---------------|
|-7-9----7------|-7-9----7------|-7-9----7------|-7-9----7------|
|-----10---10-9-|-----10---10-7-|-----10---10-9-|-----10---10-7-|
|---------------|---------------|---------------|---------------|



then 2 guitars....

guitar 1
|---------------|---------------|---------------|------------------|
|---------------|---------------|---------------|------------------|
|---------------|---------------|---------------|------------------|
|-7-9----7------|-7-9----7------|-7-9----7------|-7-9----7---------|
|-----10---10-9-|-----10---10-7-|-----10---10-9-|-----10---10-7----|
|---------------|---------------|---------------|------------------|

guitar 2
|---------------|---------------|---------------|------------------------|
|-5-3-5-5-------|---------------|-5-3-5-5-------|------------------------|
|---------4-4>7-|-5p4---5-4-2>4-|---------4-4>7-|-5p4---5-4-4-5---5h7---7|
|---------------|-----7---------|---------------|-----7---------5-----7--|
|---------------|---------------|---------------|------------------------|
|---------------|---------------|---------------|------------------------|



guitar 1               For both parts... x9
|---------------|--------------------------|
|---------------|--------------------------|
|--------------5|-5-xx-7-x-7-x-7-xx-9-9-xx-|
|-2-x-2-x-2-xx-5|-5-xx-7-x-7-x-7-xx-9-9-xx-|
|-2-x-2-x-2-xx-3|-3-xx-5-x-5-x-5-xx-7-7-xx-|
|-0-x-0-x-0-xx--|-------------------0-0-xx-|

guitar 2
|---------------|--------------------------|
|---------------|--------------------------|
|--------------5|-5-xx-7-x-7-x-7-xx--------|
|-2-x-2-x-2-xx-5|-5-xx-7-x-7-x-7-xx-2-2-xx-|
|-2-x-2-x-2-xx-3|-3-xx-5-x-5-x-5-xx-2-2-xx-|
|-0-x-0-x-0-xx--|-------------------0-0-xx-|




guitars 1 and 2        x3
|-----------------------|
|-----------------------|
|-7-x-5-x-7-x-5-5-5-5-5-|
|-7-x-5-x-7-x-5-5-5-5-5-|
|-5-x-3-x-5-x-3-3-3-3-3-|
|-----------------------|



don't know the next part sorry...



 | Em*| Em*| Em*| Em*|

 | Em D | 2/4 | C B5 | 4/4 | Em*|

 | Em D | 2/4 | C B5 | 4/4 | Em*|

 | C G | C B5 | Em D | 2/4 | C B5 | 4/4 | Em*| Em*|



guitar 1
|---------------|---------------|---------------|---------------|
|---------------|---------------|---------------|---------------|
|---------------|---------------|---------------|---------------|
|-7-9----7------|-7-9----7------|-7-9----7------|-7-9----7------|
|-----10---10-9-|-----10---10-7-|-----10---10-9-|-----10---10-7-|
|---------------|---------------|---------------|---------------|


then 2 guitars....

guitar 1
|---------------|---------------|---------------|------------------|
|---------------|---------------|---------------|------------------|
|---------------|---------------|---------------|------------------|
|-7-9----7------|-7-9----7------|-7-9----7------|-7-9----7---------|
|-----10---10-9-|-----10---10-7-|-----10---10-9-|-----10---10-7----|
|---------------|---------------|---------------|------------------|

guitar 2
|---------------|---------------|---------------|------------------------|
|-5-3-5-5-------|---------------|-5-3-5-5-------|------------------------|
|---------4-4>7-|-5p4---5-4-2>4-|---------4-4>7-|-5p4---5-4-4-5---5h7---7|
|---------------|-----7---------|---------------|-----7---------5-----7--|
|---------------|---------------|---------------|------------------------|
|---------------|---------------|---------------|------------------------|


don't know the solo for guitar 1

guitar 2                                 x5
|---------------|--------------------------|
|---------------|--------------------------|
|--------------5|-5-xx-7-x-7-x-7-xx-9-9-xx-|
|-2-x-2-x-2-xx-5|-5-xx-7-x-7-x-7-xx-9-9-xx-|
|-2-x-2-x-2-xx-3|-3-xx-5-x-5-x-5-xx-7-7-xx-|
|-0-x-0-x-0-xx--|-------------------0-0-xx-|



guitar 1               For both parts... x3
|---------------|--------------------------|
|---------------|--------------------------|
|--------------5|-5-xx-7-x-7-x-7-xx-9-9-xx-|
|-2-x-2-x-2-xx-5|-5-xx-7-x-7-x-7-xx-9-9-xx-|
|-2-x-2-x-2-xx-3|-3-xx-5-x-5-x-5-xx-7-7-xx-|
|-0-x-0-x-0-xx--|-------------------0-0-xx-|

guitar 2
|---------------|--------------------------|
|---------------|--------------------------|
|--------------5|-5-xx-7-x-7-x-7-xx--------|
|-2-x-2-x-2-xx-5|-5-xx-7-x-7-x-7-xx-2-2-xx-|
|-2-x-2-x-2-xx-3|-3-xx-5-x-5-x-5-xx-2-2-xx-|
|-0-x-0-x-0-xx--|-------------------0-0-xx-|



guitar 1 (havin trouble finding notes, this is the only not im positive about)
E|-15-|
B|----|
G|----|

guitar 2
E|----|------|----|------|----|-----|---|
B|-12-|-8-10-|-12-|------|----|-----|---|
G|----|------|----|-9-11-|-12-|-5-4-|-9-|

again no guitar 1 solo known here

guitar 2 until the end
|---------------------|---------------------|
|---------------------|---------------------|
|-9-x-9-x-9-xx-7-7-xx-|-5-x-5-x-5-xx-7-7-xx-|
|-9-x-9-x-9-xx-7-7-xx-|-5-x-5-x-5-xx-7-7-xx-|
|-7-x-7-x-7-xx-5-5-xx-|-3-x-3-x-3-xx-5-5-xx-|
|---------------------|---------------------|









Clock strikes twelve and moondrops burst 
Out at you from their hiding place 
Like acid and oil on a madman's face 
His reason tends to fly away 
Like lesser birds on the four winds 
Like silver scrapes in May 
And now the sand's become a crust 
Most of you have gone away 

Come Susie dear, let's take a walk 
Just out there upon the beach 
I know you'll soon be married 
And you'll want to know where winds come from 
Well it's never said at all 
On the map that Carrie reads 
Behind the clock back there you know 
At the Four Winds Bar 

Hey! Hey! Hey! Hey! 

Four winds at the Four Winds Bar 
Two doors locked and windows barred 
One door to let to take you in 
The other one just mirrors it 

Hey! Hey! Hey! Hey! 

Hellish glare and inference 
The other one's a duplicate 
The Queenly flux, eternal light 
Or the light that never warms 
Yes the light that never, never warms 
Or the light that never 
Never warms 
Never warms 
Never warms 

The clock strikes twelve and moondrops burst 
Out at you from their hiding place 
Miss Carrie nurse and Susie dear 
Would find themselves at Four Winds Bar 

It's the nexus of the crisis 
And the origin of storms 
Just the place to hopelessly 
Encounter time and then came me 

Hey! Hey! Hey! Hey! 

Call me Desdinova 
Eternal light 
These gravely digs of mine 
Will surely prove a sight 
And don't forget my dog 
Fixed and consequent 

Astronomy...a star









---------------


version 3







INTRO:

   Em                  Em
E:--0---0---------------0---------------------------------------|
B:--0---0---------------0---------------------------------------|
G:--0---0---4---2---0---0---------------------------------------|
D:--2---2---------------2---------------------------------------|
A:--2---2---------------2---------------------------------------|
E:--0---0---------------0---------------------------------------|

Bridge: Overdrived Gtr 1 (Jaymz)
E:----------------------------------------------------|
B:----------------------------------------------------|
G:--4p2p0--2--0-----------4p2p0---2--0----------------|
D:-----------------4--------------------2-------------|
A:----------------------------------------------------|
E:----------------------------------------------------|

Gtr 2 (Kirk)
E:--------------------------------------------------------------|
B:--------------------------------------------------------------|
G:--9-9-9-9-9---------------------------------------------------|
D:-------------9--9/12---12--10---9--10--9--7/9-----------------|
A:--------------------------------------------------------------|
E:--------------------------------------------------------------|







Clock strikes twelve and moondrops burst 
Out at you from their hiding place 
Like acid and oil on a madman's face 
His reason tends to fly away 
Like lesser birds on the four winds 
Like silver scrapes in May 
And now the sand's become a crust 
Most of you have gone away 

Come Susie dear, let's take a walk 
Just out there upon the beach 
I know you'll soon be married 
And you'll want to know where winds come from 
Well it's never said at all 
On the map that Carrie reads 
Behind the clock back there you know 
At the Four Winds Bar 

Hey! Hey! Hey! Hey! 

Four winds at the Four Winds Bar 
Two doors locked and windows barred 
One door to let to take you in 
The other one just mirrors it 

Hey! Hey! Hey! Hey! 

Hellish glare and inference 
The other one's a duplicate 
The Queenly flux, eternal light 
Or the light that never warms 
Yes the light that never, never warms 
Or the light that never 
Never warms 
Never warms 
Never warms 

The clock strikes twelve and moondrops burst 
Out at you from their hiding place 
Miss Carrie nurse and Susie dear 
Would find themselves at Four Winds Bar 

It's the nexus of the crisis 
And the origin of storms 
Just the place to hopelessly 
Encounter time and then came me 

Hey! Hey! Hey! Hey! 

Call me Desdinova 
Eternal light 
These gravely digs of mine 
Will surely prove a sight 
And don't forget my dog 
Fixed and consequent 

Astronomy...a star









---------------


version 4







Em
x 7 9 9 8 x  D
x 5 7 7 7 x  C
x 3 5 5 5 x  B
x 2 4 4 4 x  
Em(type 2)
0 2 2 0 0 0  C(type 2)
x 3 2 0 1 0  G6
3 x 0 0 3 0  B7
x 2 1 2 0 2  
D5
x 5 7 7 x x  C5
x 3 5 5 x x  

Gtr I (Eb Ab Db Gb Bb Eb) - 'Kirk Hammett - Rhythm clean electric w/chrous'
Gtr II (Eb Ab Db Gb Bb Eb) - 'James Hetfield - Rhythm clean electric'
Gtr III (Eb Ab Db Gb Bb Eb) - 'Kirk Hammett - Rhythm clean electric '
Gtr IV (Eb Ab Db Gb Bb Eb) - 'Kirk Hammett - Rhythm w/dist'
Gtr V (Eb Ab Db Gb Bb Eb) - 'James Hetfield - Rhythm w/dist'
Gtr VI (Eb Ab Db Gb Bb Eb) - 'Kirk Hammett - Lead w/dist'

Intro
  Q=86
 4/4
  Gtr I
  W          W          E S S E S S +S  E. E S S
|----------|----------|--------------------------|
|----------|----------|--------------------------|
|----------|----------|-------2-2-0-(0)----------|
|----------|----------|-2-2-2-----------4--------|
|----------|----------|--------------------5-5-5-|
|----------|----------|--------------------------|


  E S S +S  S E +S  E S E S S
|-----------------------------|
|-------------------2-2-3-3-3-|
|-------------2-(2)-2-2-------|
|-----4-(4)-4-4-(4)-----------|
|-5-5-5-(5)-5-----------------|
|-----------------------------|


  +S  S E Q  Q  E E   E. S +S  S E +S  E S E S S
|-----------------3-|-5----------0-(0)------------|
|-(3)-3-3-----------|----5-(5)-5-3-(3)------------|
|-------------------|------------------0-0-2-2-2--|
|-------------------|-----------------------------|
|-------------------|-----------------------------|
|-------------------|-----------------------------|


  Gtr I
                               >
   Q   H            E    E    +H           H
|------------------12------|----------------------------|
|-----------------------12-|-(12)-----------------------|
|--------------------------|----------------------------|
|--------------------------|----------------------------|
|------7-------------------|----------------------------|
|--------------------------|----------------------------|
|
| Gtr II
|  Q.    E +S  E S  S S  E     E. S +E  E +S  E S S S E
|-^0-----------0-0---------|---0--0-(0)---------0-------|
|-^0-----------0-----------|---0--0-(0)-------0---------|
|-^0----------------4-2--0-|---0--------------0---4-2-0-|
|-^2-----------------------|---2----------------------0-|
|-^2-----------------------|---2------------------------|
|-^0-----0-(0)-------------|---0--------0-(0)-----------|
                           |-Rhy Fig 1

  Gtr II
  E. S +S  S E +S  E S S S E   E. S +S  S E +S  S S S S S S S
|-0--------0---------0-------|-0--------0-----------0---------|
|-0--0-(0)-0-------0---------|-0--0-(0)-0-------0-0-----------|
|-0--0-(0)---------0---4p2-0-|-0--0-(0)---------0-0---4p2-0h2-|
|-2--------------------------|-2------------------------------|
|-2--------------------------|-2------------------------------|
|-0----------0-(0)-----------|-0----------0-(0)---------------|


  E. S +S  S E +S  E S S S E   E. S +S  S E +S  E S S S E
|-0--------0---------0-------|-0--------0---------0-------||
|-0--0-(0)-0-------0---------|-0--0-(0)-0-------0---------||
|-0--0-(0)---------0---4-2-0-|-0--0-(0)---------0---4-2-0-||
|-2--------------------------|-2--------------------------||
|-2--------------------------|-2--------------------------||
|-0----------0-(0)-----------|-0----------0-(0)-----------||
               end Rhy Fig 1-|


   Verses
    $
                                  2/4
    Gtr III
                 D                 C     B
    H            H                 Q     Q
    |            |                 |     |
    /            /                 /     /

    Gtr II
    E. S +S  E S E S S +S  S S S   E S S E S S
||--0--------0-0-2---0-(0)-0-----|-----3---3-3-|
||o-0--0-(0)-0-0-3---3-(3)-3---0-|---3-----3-3-|
||--0--0-(0)-----2---2-(2)-2-3---|---0-----0-0-|
||--2------------0-0-------------|-2-----------|
||o-2----------------------------|-3-----2-----|
||--0----------------------------|-------------|
 |-Rhy Fig 2                     end Rhy Fig 2-|

 4/4
  Em(type 2)                 Em           D
  W                          H            H
  |                          |            |
  /                          /            /

  E. S +E  E +S  E S S S E   E. S +S  E S E S S +S  S S S
|----------0-(0)-0-0-------|-0--------0-0-2---0-(0)-0---0-|
|----------0-(0)-0-0-------|-0--0-(0)-0-0-3---3-(3)-3-3-3-|
|----------0---------4-2-0-|-0--0-(0)-----2---2-(2)-2---0-|
|-2--2-(2)-2---------------|-2------------0-0-------------|
|-2--2-(2)-2---------------|-2----------------------------|
|-0--0-(0)-0---------------|-0----------------------------|


  C     B       Em(type 2)
 2/4           4/4
  Q     Q       W
  |     |       |
  /     /       /

  E S S E S S   E. S +E  E +S  E S E E
|---0-0---0-0-|----------0-(0)-0-0-0-0-|
|---3-3---3-3-|----------0-(0)-0-0-0-0-|
|---0-0---0-0-|----------0-(0)-----0---|
|-2-----------|-2--2-(2)-2-(2)-----2---|
|-3-----2-----|-2--2-(2)-2-(2)---------|
|-------------|-0--0-(0)-0-(0)---------|


  C(type 2)    G6              C(type 2)    B7
  H            H               H            H
  |            |               |            |
  /            /               /            /

  E. S +S  E S E S S +S  E S   E. S +S  E S E. S +S  E S
|----0-(0)-0-0-------------0-|----0-(0)-0-0------------0-|
|----3-(3)-3-3-----3-(3)-3---|----3-(3)-3-3----0-(0)-0-0-|
|----0-(0)-0-0-----0-(0)-0---|----0-(0)-0-0----0-(0)-0-0-|
|-2--------------0-------0---|-2---------------4-(4)-4---|
|-3--------------------------|-3------------2------------|
|--------------3-------------|---------------------------|


  Em           D                 C     B
                                2/4
  H            H                 Q     Q
  |            |                 |     |
  /            /                 /     /
|------------------------------|-------------|
|-w/Rhy Fig 2

  1.
 4/4
  Em(type 2)
  W                          +W
  |                           |
  /                           /
|--------------------------|-----------------------------|
|-w/Rhy Fig 1

  W
  |
  /
|---------------------------|


  W
  |
  /

  E. S +S  S E +S  E S S S E
|-0--------0---------0--------||
|-0--0-(0)-0-------0---------o||
|-0--0-(0)---------0---4-2-0--||
|-2---------------------------||
|-2--------------------------o||
|-0----------0-(0)------------||


  2.,D.S.
   Em(type 2)
   W                          W
   |                          |
   /                          /
|--------------------------|-----------------------------|
|-w/Rhy Fig 1 (1st 2 bars only)


   Interlude
    Gtr II
 |-Rhy Fig 3                              end Rhy Fig 3-|
    Em(type 2)      D      C                     Em(type 2)
    H               H      H                     H
    |               |      |                     |
    /               /      /                     /

    Gtr IV
                    ~                            ~
    S S  S S S  S E H      S S  S S S  S    +E   H
||-----------------------|-----------------------------||
||o----------------------|----------------------------o||
||-----------------------|-----------------------------||
||--9p7s=5h7----5---4----|-9p7s=5h7----5b6==(5)r-------||
||o----------------------|-----------------------7----o||
||-----------------------|-----------------------------||
|
|   Gtr V
|                   ~                            ~
|   S S  S S S  S E H      S S  S S S  S     E   H
||-----------------------|-----------------------------||
||o----------------------|----------------------------o||
||-----------------------|-----------------------------||
||--9p7----7-------------|-9p7----7--------------------||
||o-----10-----10---9----|-----10-----10---------7----o||
||-----------------------|-----------------------------||


w/Rhy Fig 3
                     ~                         ~
  S S  S S S  S S  S H      S S  S S S  S S  S H
|-------------------------|-------------------------|
|-5p3h=5-5----------------|-------------------------|
|-------------4----4s7----|-5p4----5----4----2s4----|
|-------------------------|------7------------------|
|-------------------------|-------------------------|
|-------------------------|-------------------------|
|
|                    ~                         ~
| S S  S S S  S S  S H      S S  S S S  S S  S H
|-------------------------|-------------------------|
|-------------------------|-------------------------|
|-------------------------|-------------------------|
|-9p7----7----------------|-9p7----7----------------|
|-----10-----10---10-9----|-----10-----10---10-7----|
|-------------------------|-------------------------|


                                     To Coda
  Em(type 2)         D      C
                           2/4
  H                  H      H
  |                  |      |
  /                  /      /

                     ~
  S S  S S S  S S  S H      S S  S S S  S S  S
|-------------------------|---------------------|
|-5p3h=5-5----------------|---------------------|
|-------------4----4s7----|-5p4----5----4----4h=|
|-------------------------|------7--------------|
|-------------------------|---------------------|
|-------------------------|---------------------|
|
|                    ~
| S S  S S S  S S  S H      S S  S S S  S S  S
|-------------------------|---------------------|
|-------------------------|---------------------|
|-------------------------|---------------------|
|-9p7----7----------------|-9p7----7------------|
|-----10-----10---10-9----|-----10-----10---10--|
|-------------------------|---------------------|


           D
 4/4
  H         H                 W
  |         |
  /         /

  ~~        ~~~                 PM      PM  PM|
  E. S E E  E. S +E   E       E S S +S  S E S S e E E
|-------------------------||----------------------------|
|-------------------------||o---------------------------|
|-5------5-/7---------7---||--------------------5-5-5S==|
|----5-5-------7-(7)------||--2---2-(2)---2-----5-5-5S==|
|-------------------------||o-2---2-(2)---2-----3-3-3S==|
|-------------------------||--0-0-0-(0)-0-0-0-0---------|
|-Rhy Fill 1            --||-Rhy Fig 4
|
| ~~~~~~~~~~~~~~~~~~~~~~~~
| H         Q.       +E       E S S +S  S E S S e E S S
|-------------------------||----------------------------|
|-------------------------||o-8-x-8-(8)---------5-5-x-x-|
|-------------------------||--9-x-9-(9)-x-9-x-x---------|
|-------------------------||--9-x-9-(9)-x-9-x-x-5-5-x-x-|
|-5--------/9--------(9)\-||o-7-x-7-(7)-x-7-x-x-3-3-x-x-|
|-------------------------||----------------------------|
|-Rhy Fill 1A           --||-Rhy Fig 4A

  1.                              2.
    PM      PM                        PM      PM
  E S S +S  S E S S e   E E         E S S +S  S E S S e E E
|------------------------------||-----------------------------||
|-----------------------------o||-----------------------------||
|-7---7-(7)---7-x-x------------||--/7---7-(7)---7-x-x---------||
|-7---7-(7)---7-x-x-2---2-2----||--/7---7-(7)---7-x-x-2-2-2---||
|-5-5-5-(5)-5-5-x-x-2---2-2---o||--/5-5-5-(5)-5-5-x-x-2-2-2---||
|-------------------0---0-0----||---------------------0-0-0---||
|                end Rhy Fig 4-|
|
| E S S +S  S E S S S S E S S       E S S +S  S E S S e E S S
|-------------5-x-x------------||---------------5-x-x---------||
|-7-x-7-(7)-x-5-x-x-----------o||---7-x-7-(7)-x-5-x-x---------||
|-------------7-x-x-9---9-x-x--||---------------7-x-x-9-9-x-x-||
|-7-x-7-(7)-x-7-x-x-9-9-9-x-x--||---7-x-7-(7)-x-7-x-x-9-9-x-x-||
|-5-x-5-(5)-x-5-x-x-7---7-x-x-o||---5-x-5-(5)-x-5-x-x-7-7-x-x-||
|------------------------------||-----------------------------||
                 end Rhy Fig 4-|

   Bridge
   Rhy Fig 4 + 4A x4


   Bridge
   Rhy Fig 4 + 4A x3.5

Gtrs IV, V
  D  C         C
  E. S +E E +S S e S S E
  |  |  | |  | | | | | |
  /  /  / /  / / / / / /
|-------------------------|


  D5 C5   D5   C5          D5 C5   D5   C5
  E. S +E E +S S e S S E   E. S +E E +S S e E E
  |  |  | |  | | | | | |   |  |  | |  | | | |
  /  /  / /  / / / / / /   /  /  / /  / / / /
|------------------------|----------------------|


  Gtr IV
                                                     ~~~
   Q          +E.      +S     S   S  S  S S  E       S
|------------------------------------------------------|
|------------------------------------------------------|
|----------------------------16p=14s12-12---12b13------|
|---------------------------------------------------14-|
|--7----------(7)------(7)/----------------------------|
|------------------------------------------------------|
|
| Gtr V
|                             ~~~~
|  S  S  S  S  S   S S  S    +Q.                  E
|-19p17----17------------------------------------------|
|-------20--------20---17---(17)-----------------------|
|------------------------------------------------------|
|------------------------------------------------------|
|------------------------------------------------------|
|------------------------------------------------------|


 ~~~~~~
   +H                  S  S S S  S  E    S
|---------------------------------------------|
|---------------------------------------------|
|---------------------------------------------|
|-(14)----------------\9p=7s5h7-----5b6-------|
|----------------------------------------7----|
|---------------------------------------------|
|
|                   ~~~~~~~~~~~~~~~~
|   S S  S S S  S S S +Q        +E.     +S
|---------------------------------------------|
|---------------------------------------------|
|---------------------------------------------|
|---9p7----7----------------------------------|
|-------10-----10---7-(7)-------(7)-----(7)\--|
|---------------------------------------------|


                                      >
  +W                    +W           +W
|---------------------|------------|------------------||
|---------------------|------------|------------------||
|---------------------|------------|------------------||
|---------------------|------------|------------------||
|-(7)-----------------|-(7)--------|-(7)--------------||
|---------------------|------------|------------------||
|
|  S S S S S S E H      +W           +E   Q.   +H
|---------------------|------------|-----^0----(0)----||
|---------------------|------------|-----^0----(0)----||
|---------------------|------------|-----^0----(0)----||
|---------------------|------------|-----^2----(2)----||
|-\2p0---0------------|------------|------------------||
|------3-----3---0----|-(0)--------|-(0)--------------||


w/Rhy Fig 1
  Em(type 2)
  W                          W
  |                          |
  /                          /
|--------------------------|----------------------------|



  W                                W
  |                                |
  /                                /                    D.S. al Coda
|--------------------------|----------------------------|


  &
w/Fill 1 + 1A
    C                     D
    H                     H
    |                     |
    /                     /

  Gtr VI
    E   S  S  S  S  S  S  Q     E   E
|---------------------------------------||
|---------------------------------------||
|------------------------------11-------||
|-/14--14-14-14-14-14-14-----------14---||
|---------------------------------------||
|---------------------------------------||


 Guitar Solo
w/Rhy Fig 4 + 4A (both) x4
                    ~~~~~~~
   E.    S  +S   S  E  +S   S  S  S  S  S  S  S
|-----------------------------------------------|
|-----------------------------------------------|
|-----------------------------------------------|
|-14----12-(12)-12-14-(14)----------14----14-12-|
|--------------------------14-12h14----15-------|
|-----------------------------------------------|

                      ~~~~~~~           ~~
   S  S  S  S  S   S  E  +E     E       E  S  S
|-----------------------------------------------|
|------------------------------14b15------------|
|------------------------------14b16---12----12-|
|-14-14----12-----12-14-(14)--------------14----|
|-------14--------------------------------------|
|-----------------------------------------------|


   E      +S    S      +E      S      +S   +S    S      +E    S  S  S  S
|----------------------------------------------------------------------------|
|-14b15==(14)r-14b15==(14)r---14b15==(14)-(14)r-14b15==(14)r-----------------|
|-14b16==(14)r-14b16==(14)r---14b16==(14)-(14)r-14b16==(14)r-12----12-14b16==|
|---------------------------------------------------------------14-----------|
|----------------------------------------------------------------------------|
|----------------------------------------------------------------------------|


   +S    S  T  T  S  S   S  S  S       +S   +S   S  S  E  +S  T T
|-------12--------------------------------------------------------|
|----------15p12--------------------------------------------------|
|-(14)r----------14-12-----12-14pb16==(14)r(14)-12-14-12-(12)S9p7-|
|-----------------------14----------------------------------------|
|-----------------------------------------------------------------|
|-----------------------------------------------------------------


  E S S +S  S  E  +S  S S  S  S  S S S
|-----------------------7s=9--9--9------|
|-----8-(8)---10-(10)-8-8s10-10-10------|
|-9-9-7-(7)-7--9--(9)-7-7s=9--9--9-9-9--|
|-9-9-----------------------------------|
|---------------------------------------|
|---------------------------------------|


                                                               ~~
    S  S  S  S  +E     E E    S  S  E  S S    S  S S  S  S  S  E  +S   S  S  S  S  S  S  S
|-/12-12-10-12-(12)----0-0---------12-12-x-|-----------------------------------------------|
|-----------10-(10)----------11s12-------x-|--------------------------------------12-------|
|---------------------/9-9-----------------|--------------------------------------12-------|
|------------------------------------------|-14-14-x-12-----x-14-(14)----------14----14-12-|
|------------------------------------------|--------------------------12-12h14-------------|
|------------------------------------------|-----------------------------------------------|


   S  S  S  S  S   S S  S S  S  E    E  +E
|-----------------------------------------------||
|----------12-----12---12---12-12---------------||
|----------12-----12---12---12-12---------------||
|-14-14-14--------------------------14-(14)\----||
|-----------------------------------------------||
|-----------------------------------------------||


   Bridge
   Rhy Fig 4 + 4A x3


 Interlude
  Gtr VI
               ~~~~~~~~~~            ~~~~~~~~~~~~~~~~~~~~~~
   W           H     +Q.     E       W           H     +Q.    E
|-15--------|------------------|--------------|-----------------|
|-----------|-13----(13)----15h|====17--------|-----------------|
|-----------|------------------|--------------|-12----(12)---14-|
|-----------|------------------|--------------|-----------------|
|-----------|------------------|--------------|-----------------|
|-----------|------------------|--------------|-----------------|
|
| Gtr IV
|              ~~~~~~~~~~            ~~~~~~~~~~~~~~~~~~~~~~
|  W           H     +Q.     E    a  W           H     +Q.    E
|-----------|------------------|--------------|-----------------|
|-12--------|--8-----(8)---/10-|-10h12--------|-----------------|
|-----------|------------------|--------------|--9-----(9)---11-|
|-----------|------------------|--------------|-----------------|
|-----------|------------------|--------------|-----------------|
|-----------|------------------|--------------|-----------------|


      ~~~~~~~~~~~~~~                ~~~~~~~~~~
      W           H     +Q.    E    H     +Q.          S  S
|--------------|-----------------|---------------------------|
|----12--------|-----------------|-12----(12)---------12h13--|
|--------------|-12----(12)---14-|---------------------------|
|--------------|-----------------|---------------------------|
|--------------|-----------------|---------------------------|
|--------------|-----------------|---------------------------|
|
|     ~~~~~~~~~~~~~~~~~~~~~~~~~~~~~~~~~~~~~~~~~~~~~~~~
|  a  W           H     +Q.    E    H     +E. +S  +Q
|--------------|-----------------|---------------------------|
|--------------|-----------------|---------------------------|
|-11h12--------|-\5-----(5)----4-|-/9-----(9)-(9)-(9)--------|
|--------------|-----------------|---------------------------|
|--------------|-----------------|---------------------------|
|--------------|-----------------|---------------------------|


    ~~~~~~~~~~
    W
|------------------------------------------------------------------------------------------------------------------|
|--12--------------------------------------------------------------------------------------------------------------|
|------------------------------------------------------------------------------------------------------------------|
|------------------------------------------------------------------------------------------------------------------|
|------------------------------------------------------------------------------------------------------------------|
|------------------------------------------------------------------------------------------------------------------|
|
|   |-------3--------|
|  +E         +E    +E         +S    +S         +S    +S         +E    +S         +S    +E         +S    +S
|------------------------------------------------------------------------------------------------------------------|
|------------------------------------------------------------------------------------------------------------------|
|-(<9>)b9.5==(<9>)r(<9>)b9.5==(<9>)r(<9>)b9.5==(<9>)r(<9>)b9.5==(<9>)r(<9>)b9.5==(<9>)r(<9>)b9.5==(<9>)r(<9>)b9.5==|
|------------------------------------------------------------------------------------------------------------------|
|------------------------------------------------------------------------------------------------------------------|
|------------------------------------------------------------------------------------------------------------------|


    E.                     S         +E     E    +S    E.  E  E
|---------------------------------------------------------14----||
|--12---------------------13--------(13)---15---(15)--17-----15-||
|---------------------------------------------------------------||
|---------------------------------------------------------------||
|---------------------------------------------------------------||
|---------------------------------------------------------------||
|
|                                                 ~~~~~
|  +S    +S         +S    +S         +E    +E    +H
|---------------------------------------------------------------||
|---------------------------------------------------------------||
|-(<9>)r(<9>)b9.5==(<9>)r(<9>)b9.5==(<9>)r(<9>)-(<9>)-----------||
|---------------------------------------------------------------||
|---------------------------------------------------------------||
|---------------------------------------------------------------||


   E.      S   +E    E  +S    E.  E  E
|---------14--(14)--15-(15)-/17--19-17-||
|-17-----------------------------------||
|--------------------------------------||
|--------------------------------------||
|--------------------------------------||
|--------------------------------------||
|
|               TP
|  S  S S  S    H.
|--------------------------------------||
|--------------------------------------||
|--------------------------------------||
|--------------------------------------||
|--------------------------------------||
|--x\-0-0-<2>--<2>/--------------------||


 Outro - Double Time Feel
   E.      S      +E      E      +E      E     Q
|-15------15-----(15)----15-----(15)----14----14--------|
|-18b20---18b20==(18)r---18b20==(18)r---17b19-17b19-----|
|-------------------------------------------------------|
|-------------------------------------------------------|
|-------------------------------------------------------|
|-------------------------------------------------------|
|
|Gtrs IV, V
|       PM             PM         PM--|
|  E    S  S      +S   S  E       S   S  e     E    S S
|-------------------------------------------------------|
|-------------------------------------------------------|
|----------------------------------------7-----7----x-x-|
|--2-------2------(2)-----2--------------7-----7----x-x-|
|--2-------2------(2)-----2--------------5-----5----x-x-|
|--0----0--0------(0)--0--0-------0---0-----------------|
|-Rhy Fig 5

   E.      S      +E      E      +E      E     Q
|-12------12-----(12)----12-----(12)----14----14--------|
|-15b17---15b17==(15)r---15b17==(15)r---17b19-17b19-----|
|-------------------------------------------------------|
|-------------------------------------------------------|
|-------------------------------------------------------|
|-------------------------------------------------------|
|
|       PM             PM
|  E    S  S      +S   S  E       S   S  e     E    S S
|-------------------------------------------------------|
|-------------------------------------------------------|
|--5-------5------(5)-----5-------x---x--7-----7----x-x-|
|--5-------5------(5)-----5-------x---x--7-----7----x-x-|
|--3----3--3------(3)--3--3-------x---x--5-----5----x-x-|
|-------------------------------------------------------|
                                          end Rhy Fig 5-|

w/Rhy Fig 5 to end
                          ~~~~~~~~~~~~
                                               |-----3-----|
   E.      S      +E      E      +E      S  S  S      +S   S  S  T      +T
|-15------15-----(15)----15-----(15)----15-17-17pb19r(17)p15-17-17pb19r(17)-|
|-18b20---18b20==(18)r---18b20==(18)r---------------------------------------|
|---------------------------------------------------------------------------|
|---------------------------------------------------------------------------|
|---------------------------------------------------------------------------|
|---------------------------------------------------------------------------|


                                                                                 ~~
    |-----------6-----------|                   |--3---|  |------3------|
   +S   S  S  S      +S     S  S   T      +T   +S   S  S  S      +S     S  S  S  Q
|-(17)p15-17-17pb19r(17)p==15-17--17pb19r(17)-(17)p15-17-17pb19r(17)p==15-17-15--------|
|-------------------------------------------------------------------------------15-----|
|--------------------------------------------------------------------------------------|
|--------------------------------------------------------------------------------------|
|--------------------------------------------------------------------------------------|
|--------------------------------------------------------------------------------------|


   E.      S      +E      E      +E      E     Q
|-15------15-----(15)----15-----(15)----14----14--------|
|-18b20---18b20==(18)r---18b20==(18)r---17b19-17b19-----|
|-------------------------------------------------------|
|-------------------------------------------------------|
|-------------------------------------------------------|
|-------------------------------------------------------|


                                               ~~~~~
   E.      S      +E      E      +E      E     Q
|-12------12-----(12)----12-----(12)----14----14--------|
|-15b17---15b17==(15)r---15b17==(15)r---17b19-17b19-----|
|-------------------------------------------------------|
|-------------------------------------------------------|
|-------------------------------------------------------|
|-------------------------------------------------------|


                                               |--3--|
   E.      S      +S   S   E     E       S  S  T  T  T  S  S  S
|-15------15-----(15)-15--15----15------15-19-15h19p15----15-19-|
|-18b20---18b20==(18)-18r-18b20-18b20------------------17-------|
|---------------------------------------------------------------|
|---------------------------------------------------------------|
|---------------------------------------------------------------|
|---------------------------------------------------------------|


                                                       ~~
   |--3--|           |--3---|
   T  T  T  S  S  S  T   T  T  S  S  S  T  T  S  S  S  Q
|-15h19p15----15-19-15h=19p15----15-19-19p15----15-17--------|
|----------17-----------------17-------------17-------15-----|
|------------------------------------------------------------|
|------------------------------------------------------------|
|------------------------------------------------------------|
|------------------------------------------------------------|


   E.      S      +E      E      +E      E     Q
|-15------15-----(15)----15-----(15)----14----14--------|
|-18b20---18b20==(18)r---18b20==(18)r---17b19-17b19-----|
|-------------------------------------------------------|
|-------------------------------------------------------|
|-------------------------------------------------------|
|-------------------------------------------------------|


                                               ~~~~~
   E.      S      +E      E      +E      E     Q
|-12------12-----(12)----12-----(12)----14----14--------|
|-15b17---15b17==(15)r---15b17==(15)r---17b19-17b19-----|
|-------------------------------------------------------|
|-------------------------------------------------------|
|-------------------------------------------------------|
|-------------------------------------------------------


                                               ~~~~~
   E.      S      +E      E      +E      E     Q
|-15------15-----(15)----15-----(15)----17----17--------|
|-18b20---18b20==(18)r---18b20==(18)r---20b22-20b22-----|
|-------------------------------------------------------|
|-------------------------------------------------------|
|-------------------------------------------------------|
|-------------------------------------------------------|


   S     S  S  S      +S    S  S     S  S     S  S     S  S     S  S     S
|-19----19-19--------------19-------19-------19-------19-------19-------19-|
|-22b24-------22b24==(22)r----22b24----22b24----22b24----22b24----22b24----|
|--------------------------------------------------------------------------|
|--------------------------------------------------------------------------|
|--------------------------------------------------------------------------|
|--------------------------------------------------------------------------|


   S     S  S     S  S     S  S  S      +S    S  S     S  S     S  S  S
|-------19-------19-------19-19--------------19-------19-------19-19-------|
|-22b24----22b24----22b24-------22b24==(22)r----22b24----22b24-------22b24-|
|--------------------------------------------------------------------------|
|--------------------------------------------------------------------------|
|--------------------------------------------------------------------------|
|--------------------------------------------------------------------------|


   S     S  S     S  S     S  S     S  S     S  S     S  S     S  S     S
|-------19-------19-------19-------19-------19-------19-------19-------19-|
|-22b24----22b24----22b24----22b24----22b24----22b24----22b24----22b24----|
|-------------------------------------------------------------------------|
|-------------------------------------------------------------------------|
|-------------------------------------------------------------------------|
|-------------------------------------------------------------------------|


                              |-----5-----|
   S     +S   S  S  S   T  T  T  T  T  T  T  T  T  S  S  S  S  S  S  S
|-22b24r(22)-19-20-22--20p19-19h20p19-20p19-20p19-17-15-17-15-14----14--|
|----------------------------------------------------------------17-----|
|-----------------------------------------------------------------------|
|-----------------------------------------------------------------------|
|-----------------------------------------------------------------------|
|-----------------------------------------------------------------------|


   S     +S   S  S  S   S    S  S     +S   S  T  T  S  a  E E
|---------------------------------------------------------------|
|-17b20r(17)-15----15--17b20---17b20r(17)-15-17p15----15h17-----|
|---------------16---------------------------------16-----------|
|---------------------------------------------------------------|
|---------------------------------------------------------------|
|---------------------------------------------------------------|


   S S  S S  S  S  S S S  S  S  S  S      +S    E
|----------------------------------------------------|
|-12---12---12----12-----14-14-12-12-----------12----|
|-12---12---12----12-----14-14-12-12b15==(12)r-12----|
|----------------------------------------------------|
|----------------------------------------------------|
|----------------------------------------------------|


   PM---|                                       ~~~
   S  S  S  S  S   S S  S S  S  S      +S    T  S.  S  S
|--------------------------------------------------------|
|--------------------------------------------------------|
|------------------------------12b14==(12)r-12--------12-|
|-------12-14-----14---14---14-----------------14--14----|
|-12-14--------------------------------------------------|
|--------------------------------------------------------|


         |---3---|
   S  S  S  S    S  S   S  S  S  S      +E     S      +S   a      +E     S
|-------------------------------------------------------------------------------|
|----12-15p12------12-----------------------------------------------------------|
|-14------------14-12-----12-14-14pb16r(14)---14pb16r(14)-14pb16r(14)---14pb16r=|
|----------------------14-------------------------------------------------------|
|-------------------------------------------------------------------------------|
|-------------------------------------------------------------------------------|


                                    ~~~~~~~
   +E   S  S  S   S  S  S  S  S  S  S  +S.  T  S  S
|---------------------------------------------------|
|----------------------15---------------------------|
|-(14)-12----12--14s16----16s14-12------------------|
|---------14-----------------------14-(14)-14-14-14-|
|---------------------------------------------------|
|---------------------------------------------------|


         |---3---|  |--------6--------|  |-------6--------|  |-------6--------|
   S  S  S  S    S  S   S    S  S  S  S  S  S    S  S  S  S  S  S  S  S  S    S
|--------------------------------------------------------------------------------|
|-------12---------------------12------------------12----------------12----------|
|-12-14----15---14-12--14---12----15-14-12-14---15----15-14-12-14-15----15---14--|
|--------------------------------------------------------------------------------|
|--------------------------------------------------------------------------------|
|--------------------------------------------------------------------------------|


                                                                            ~~
                                     |-----5-----|
   T  T  T  T  S  T  T  T   T  T  T  T  T  T  T  T  T  T  T  T  T  T  T  T  E  S  S
|-----------------------------------------------------------------------------------|
|-----------------------------12----------------------------------------------------|
|-12h14p12----12----12-14h=15----15-14-12h14p12----12h14p12----12h14p12----12----12-|
|----------14----14-----------------------------14----------14----------14----14----|
|-----------------------------------------------------------------------------------|
|-----------------------------------------------------------------------------------|


   |-------6--------|  |--------6--------|
   S  S  S  S  S    S  S   S    S  S  S  S  T  T  S  S  S  S  S   S  S
|-------------------------------------------------------------------------|
|-------12----------------------------------------------------------15----|
|-14-15----15-14---12-14p=12------12----------------------12-14-/16-------|
|------------------------------14----14-12-14p12----12-14-----------------|
|------------------------------------------------14-----------------------|
|-------------------------------------------------------------------------|


    S  S  a  S  T  T  T   T  S  S  S  S  S  S  S      +S   +S   S  S
|-----15-15h19-19p17-17p=15----15------------------------------------|
|-/17-----------------------17----17-15----15-17b20==(17)r(17)-15-17-|
|---------------------------------------17---------------------------|
|--------------------------------------------------------------------|
|--------------------------------------------------------------------|
|--------------------------------------------------------------------|


      ~~
   a  Q      S     +S   S  S  a  Q     Q
|--------------------------------------------*|
|-15h17-----17b20r(17)-15-17-15h17-----------*|
|--------------------------------------------*|
|--------------------------------------------*|
|--------------------------------------------*|
|--------------------------------------------*|








Clock strikes twelve and moondrops burst 
Out at you from their hiding place 
Like acid and oil on a madman's face 
His reason tends to fly away 
Like lesser birds on the four winds 
Like silver scrapes in May 
And now the sand's become a crust 
Most of you have gone away 

Come Susie dear, let's take a walk 
Just out there upon the beach 
I know you'll soon be married 
And you'll want to know where winds come from 
Well it's never said at all 
On the map that Carrie reads 
Behind the clock back there you know 
At the Four Winds Bar 

Hey! Hey! Hey! Hey! 

Four winds at the Four Winds Bar 
Two doors locked and windows barred 
One door to let to take you in 
The other one just mirrors it 

Hey! Hey! Hey! Hey! 

Hellish glare and inference 
The other one's a duplicate 
The Queenly flux, eternal light 
Or the light that never warms 
Yes the light that never, never warms 
Or the light that never 
Never warms 
Never warms 
Never warms 

The clock strikes twelve and moondrops burst 
Out at you from their hiding place 
Miss Carrie nurse and Susie dear 
Would find themselves at Four Winds Bar 

It's the nexus of the crisis 
And the origin of storms 
Just the place to hopelessly 
Encounter time and then came me 

Hey! Hey! Hey! Hey! 

Call me Desdinova 
Eternal light 
These gravely digs of mine 
Will surely prove a sight 
And don't forget my dog 
Fixed and consequent 

Astronomy...a star










---------------


version 5








intro    e|--5------|----5-9h10-|-5----------|---------|
         B|5---8-7-5|--7--------|---8-5------|---------|
         G|---------|7----------|-------7-6--|---------|
         D|---------|-----------|-----------7|------7-5|
         A|---------|-----------|------------|9-5-7----|
         E|---------|-----------|------------|---------|

Part A   e|--0-0-------|
         B|--0-0-0-----|
         G|--0-0--2-0--| 
         D|--2-2-------|
         A|--2-2-------|
         E|--0-0-------|

Part B   e|--0--2--0-----0|    |-0--3--0-----0--2--0-----0|
         B|--0--3--1--0--0|    |-1--3--1-----0--3--1--0--0|
         G|--0--2--0--0--0|    |-0--0--0--4--0--2--0--0--0| 
         D|--2--0--2--0--2|    |-2--0--2--4--2--0--2--0--2|
         A|--2-----3--2--2|    |-3-----3--2--2-----3--2--2|
         E|--0-----------0|<2X |----3--------0-----------0|

Part Ce|-7-5---5--------|--7-5---5-------|--7-5---5--------|--7-5---5-----|
      B|-----8---8-7----|------8---8-5---|------8---8-7----|------8---8-5-|
      G|----------------|----------------|-----------------|--------------|
      D|----------------|----------------|-----------------|--------------|
      A|----------------|----------------|-----------------|--------------|
      E|----------------|----------------|-----------------|--------------|


 e|-7-5---5---------|--7-5---5--------|--7-5---5--------|--7-5---5---------|
 B|-----8---8-8-7---|------8---8-8-5--|------8---8-8-7--|------8---8-8-5---|
 G|-----------------|-----------------|-----------------|------------------|
 D|-----------------|-----------------|-----------------|------------------|
 A|-----------------|-----------------|-----------------|------------------|
 E|-----------------|-----------------|-----------------|------------------|

Part D   e|--------------------------|
         B|--------------------------|
         G|--9--9-9--5-5--7-7-7--9-9-|
         D|--9--9-9--5-5--7-7-7--9-9-|
         A|--7--7-7--3-3--5-5-5--7-7-|
         E|--0-0--0--------------0-0-|

Part E   e|--11-9----9----------------------------------------------|
         B|-------12---12-9-----------------------------------------|
         G|-------------------14-12----12---------------------------|
         D|-------------------------15----15-12---11-9----9---------|
         A|--------------------------------------------12---12-9----|
         E|---------------------------------------------------------|

outro    e|--------------------------|
         B|--------------------------|
         G|--9--9-9--7-7--5-5-5--7-7-|
         D|--9--9-9--7-7--5-5-5--7-7-|
         A|--7--7-7--5-5--3-3-3--5-5-|
         E|--0-0--0------------------|

----------------------------------------------------------------------------
 INTRO   e|--5------|----5-9h10-|-5----------|---------|
         B|5---8-7-5|--7--------|---8-5------|---------|
         G|---------|7----------|-------7-6--|---------|
         D|---------|-----------|-----------7|------7-5|
         A|---------|-----------|------------|9-5-7----|
         E|---------|-----------|------------|---------|

Part A   e|--0-0-------|
         B|--0-0-0-----|
         G|--0-0--2-0--| 
         D|--2-2-------|
         A|--2-2-------|
         E|--0-0-------|
~~~~~~~~~~~~~~~~~~~~~~~~~~~~~~~~~~~~~~~~~~~~~~~~~~~~~~~~~~~~~~~~~~~~~~~~~~~~
Part B   e|--0--2--0-----0|    |-0--3--0-----0--2--0-----0|
         B|--0--3--1--0--0|    |-1--3--1-----0--3--1--0--0|
         G|--0--2--0--0--0|    |-0--0--0--4--0--2--0--0--0| 
         D|--2--0--2--0--2|    |-2--0--2--4--2--0--2--0--2|
         A|--2-----3--2--2|    |-3-----3--2--2-----3--2--2|
         E|--0-----------0|<2X |----3--------0-----------0|
          
         Clock strikes twelve and moondrops burst
         Out at you from their hiding place
         Like acid and oil on a madman's face
         His reason tends to fly away
         Like lesser birds on the four winds
         Like silver scrapes in May
         And now the sand's become a crust
         Most of you have gone away
~~~~~~~~~~~~~~~~~~~~~~~~~~~~~~~~~~~~~~~~~~~~~~~~~~~~~~~~~~~~~~~~~~~~~~~~~~~~
Part B   e|--0--2--0-----0|    |-0--3--0-----0--2--0-----0|
         B|--0--3--1--0--0|    |-1--3--1-----0--3--1--0--0|
         G|--0--2--0--0--0|    |-0--0--0--4--0--2--0--0--0|
         D|--2--0--2--0--2|    |-2--0--2--4--2--0--2--0--2|
         A|--2-----3--2--2|    |-3-----3--2--2-----3--2--2|
         E|--0-----------0|<2X |----3--------0-----------0|

         Come Susie dear, let's take a walk
         Just out there upon the beach
         I know you'll soon be married
         And you'll want to know where winds come from
         Well it's never said at all
         On the map that Carrie reads
         Behind the clock back there you know
         At the Four Winds Bar
~~~~~~~~~~~~~~~~~~~~~~~~~~~~~~~~~~~~~~~~~~~~~~~~~~~~~~~~~~~~~~~~~~~~~~~~~~~~
Part Ce|-7-5---5--------|--7-5---5-------|--7-5---5--------|--7-5---5------
      B|-----8---8-7----|------8---8-5---|------8---8-7----|------8---8-5---
      G|----------------|----------------|-----------------|----------------
      D|----------------|----------------|-----------------|----------------
      A|----------------|----------------|-----------------|----------------
      E|----------------|----------------|-----------------|----------------


  e|-7-5---5---------|--7-5---5--------|--7-5---5--------|--7-5---5--------|
  B|-----8---8-8-7---|------8---8-8-5--|------8---8-8-7--|------8---8-8-5-7|
  G|-----------------|-----------------|-----------------|-----------------|
  D|-----------------|-----------------|-----------------|-----------------|
  A|-----------------|-----------------|-----------------|-----------------|
  E|-----------------|-----------------|-----------------|-----------------|
                                                                                  
YEAH HEY!!!
~~~~~~~~~~~~~~~~~~~~~~~~~~~~~~~~~~~~~~~~~~~~~~~~~~~~~~~~~~~~~~~~~~~~~~~~~~~~
Part D   e|--------------------------|
         B|--------------------------|
         G|--9--9-9--5-5--7-7-7--9-9-|
         D|--9--9-9--5-5--7-7-7--9-9-|
         A|--7--7-7--3-3--5-5-5--7-7-|
         E|--0-0--0--------------0-0-|repeat 10 times
         Hey! Hey! Hey! Hey!

         Four winds at the Four Winds Bar
         Two doors locked and windows barred
         One door to let to take you in
         The other one just mirrors it

         Hey! Hey! Hey! Hey!

         Hellish glare and inference
         The other one's a duplicate
         The Queenly flux, eternal light
         Or the light that never warms
         Yes the light that never, never warms
         Or the light that never
         Never warms
         Never warms
         Never warms
~~~~~~~~~~~~~~~~~~~~~~~~~~~~~~~~~~~~~~~~~~~~~~~~~~~~~~~~~~~~~~~~~~~~~~~~~~~~
Part E   e|--11-9----9----------------------------------------------|
         B|-------12---12-9-----------------------------------------|
         G|-------------------14-12----12---------------------------|
         D|-------------------------15----15-12---11-9----9---------|
         A|--------------------------------------------12---12-9----|
         E|---------------------------------------------------------|
~~~~~~~~~~~~~~~~~~~~~~~~~~~~~~~~~~~~~~~~~~~~~~~~~~~~~~~~~~~~~~~~~~~~~~~~~~~~
Part A   e|--0-0-------|
         B|--0-0-0-----|
         G|--0-0--2-0--| 
         D|--2-2-------|
         A|--2-2-------|
         E|--0-0-------|
~~~~~~~~~~~~~~~~~~~~~~~~~~~~~~~~~~~~~~~~~~~~~~~~~~~~~~~~~~~~~~~~~~~~~~~~~~~~
Part B   e|--0--2--0-----0|    |-0--3--0-----0--2--0-----0|
         B|--0--3--1--0--0|    |-1--3--1-----0--3--1--0--0|
         G|--0--2--0--0--0|    |-0--0--0--4--0--2--0--0--0| 
         D|--2--0--2--0--2|    |-2--0--2--4--2--0--2--0--2|
         A|--2-----3--2--2|    |-3-----3--2--2-----3--2--2|
         E|--0-----------0|<2X |----3--------0-----------0|
          
        The clock strikes twelve and moondrops burst
        Out at you from their hiding place
        Miss Carrie nurse and Susie dear
        Would find themselves at Four Winds Bar

        It's the nexus of the crisis
        And the origin of storms
        Just the place to hopelessly
        Encounter time and then came me
~~~~~~~~~~~~~~~~~~~~~~~~~~~~~~~~~~~~~~~~~~~~~~~~~~~~~~~~~~~~~~~~~~~~~~~~~~~~
Part Ce|-7-5---5--------|--7-5---5-------|--7-5---5--------|--7-5---5-------
      B|-----8---8-7----|------8---8-5---|------8---8-7----|------8---8-5---
      G|----------------|----------------|-----------------|----------------
      D|----------------|----------------|-----------------|----------------
      A|----------------|----------------|-----------------|----------------
      E|----------------|----------------|-----------------|----------------


  e|-7-5---5---------|--7-5---5--------|--7-5---5--------|--7-5---5--------|
  B|-----8---8-8-7---|------8---8-8-5--|------8---8-8-7--|------8---8-8-5-7|
  G|-----------------|-----------------|-----------------|-----------------|
  D|-----------------|-----------------|-----------------|-----------------|
  A|-----------------|-----------------|-----------------|-----------------|
  E|-----------------|-----------------|-----------------|-----------------|
                                                                                  YEAH HEY!!!
~~~~~~~~~~~~~~~~~~~~~~~~~~~~~~~~~~~~~~~~~~~~~~~~~~~~~~~~~~~~~~~~~~~~~~~~~~~~
SOLO "SORRY PEOPLE I COULDNT FIGURE IT OUT Neither FIND IT ANYWHERE ELSE ON THE INTERNET"
Part D   e|--------------------------|
         B|--------------------------|
         G|--9--9-9--5-5--7-7-7--9-9-|
         D|--9--9-9--5-5--7-7-7--9-9-|
         A|--7--7-7--3-3--5-5-5--7-7-|
         E|--0-0--0--------------0-0-|
         Hey! Hey! Hey! Hey!

         Call me Desdinova
         Eternal light
         These gravely digs of mine
         Will surely prove a sight
         And don't forget my dog
         Fixed and consequent
~~~~~~~~~~~~~~~~~~~~~~~~~~~~~~~~~~~~~~~~~~~~~~~~~~~~~~~~~~~~~~~~~~~~~~~~~~~~
missing this part to sorry
~~~~~~~~~~~~~~~~~~~~~~~~~~~~~~~~~~~~~~~~~~~~~~~~~~~~~~~~~~~~~~~~~~~~~~~~~~~~
outro solo is missing to sorry for that to.
outro    e|--------------------------|
         B|--------------------------|
         G|--9--9-9--7-7--5-5-5--7-7-|
         D|--9--9-9--7-7--5-5-5--7-7-|
         A|--7--7-7--5-5--3-3-3--5-5-|
         E|--0-0--0------------------|
         Astronomy...a star 










---------------


version 6








CHORDS: (clean) Em, D, C, B, G
        (distorted power chords) E    C    D
                               --0----0----0--
                               --0----0----0--
                               --9----5----7--
                               --9----5----7--
                               --7----3----5--
                               --0----0----0--

 Em               D                    C      B        Em
 Clock strikes 12 and moondrops burst, out at you from their hiding place.
Em                   D                 C        B       Em
Like acid and oil on a madmans face, his reasons tend to fly away
     C                  B                   C                 G
Like lesser birds on the 4 winds, yeah, like silver scrapes in may
 C                 B             C       B          Em
Now the sands become a crust, and most of you have gone away

Come Suzie dear lets take a walk, just out there upon the beach

I know you'll soon be married, and you'll want to know where winds come from

Well its never said at all, on the map that Carrie reads

Behind the clock back there you know, at the 4 winds bar


(now it goes into the distorted part)

E    C   D   E     E   C    D    E
HEY      HEY       HEY       HEY

E                        C         D                    E
The four winds at the 4 winds bar, 2 doors locked and windows barred
E                    C           D                    E
One door left to take you in, the other one just mirrors it
E    C  D    E     E    C    D    E
HEY     HEY        HEY       HEY

E                  C            D              E
Hellish glare and inference, the other ones a duplicate
E                 C               D               E
The queenly flux, eternal light, yeah the light that never warms
E                C         D      E     E               C         D   C   
Yes the light, that never, never warms. yes the light that never, never 
D      D  C  D      D  C  D
warms, never warms, never warms

(back to clean)

Clock strikes 12 and moondrops burst, out at you from their hiding place.
Miss Carrie Nurse and Suzie dear, would find themselves at the 4 winds bar
Its the nexus, of the crisis, and the origin of storms
Just the place to hopelessly, encounter time and then came me

(back to distortion)
E   C  D   E  E   C   D  E
HEY    HEY    HEY     HEY    (play that behind the solo)

E            C      D       E 
Call me desdinova, eternal light
E                     C       D                  E
These gravely digs of mine, will surely prove a sight
 E                 C     D               E
And dont forget my dog, fixed and consequent

(Now the outro, the rythym is the power chords played the same, and there is a solo
played over it








-----------
Want More Free Lessons?

Browse through the Archive!

PROBLEM WITH THIS TAB? | VIEW FULL SCREEN | PRINT

LifeLock.comCyberChimps Professional WordPress Themes