Lessons/Tabs are sorted alphabetically.

Tab Vault

PROBLEM WITH THIS TAB?   VIEW FULL SCREEN   PRINT

Attitude

Metallica
Attitude By  Metallica






                             Attitude 







Intro Part 1

Gtr 1
       * Very quick hammer on and very slow bend.

e:----------------------------------------------------------------------]
B:----------------------------------------------------------------------]
G:----------------------------------------------------------------------]
D:-5h7bbbbbb9--7-5-7-5----------------------5h7bbbbbb9--7-5-7-5---------]
A:---------------------7~~~~~\----------------------------------7~~~~~\-]
E:----------------------------------------------------------------------]

Gtr 2

e:--------------------------------------]
B:--------------------------------------]
G:--------------------------------------]
D:-------------------------5--5--5-5s7--]
A:-------------------------5--5--5-5s7--]
E:-----------------------0-3--3--3-3s5--]

Intro Part 2

   Gtr 1 Only   Both                                
e:--------------{--------------/
B:--------------5--------------/
G:--------------7bb9-7-5-7-7-9-/
D:-7bb9-7-5-7-5------------7-9-/
A:-------------------------5-7-/
E:-----------------------------/
                              

                        x4
e:------------------------------------------------------/-]
B:------------------------------------------------------/-]
G:-----------9\------------9\-----------------------7-9-/-]
D:-----4h5---9\------4h5---9\-----4h5---------------7-9-/-]
A:-----5-----7\------5-----7\-----5-----5----7----5-5-7-/-]
E:-0-0-----0-----0-0-----0----0-0-----0-3--0-5--0-3-----/-]
PM(E only------------------------)

Verse 

e:----------------------------------------]
B:----------------------------------------]
G:----------------------------------------]
D:----------------------------------------]
A:-7s5-2-2---7-7-7-5---7s5-2-2---5-5-5-7--]
E:-5s3-0-0---5-5-5-3---5s3-0-0---3-3-3-5--]

e:------------------------------------------------]
B:------------------------------------------------]
G:------------------------------------------------]
D:------------------------------------------------]
A:-7s5-2-2---7-7-7-5---7s5-2-2---2-2-2-2-2-2-2-2--]
E:-5s3-0-0---5-5-5-3---5s3-0-0---0-0-0-0-0-0-0-0--]
                               PM--------------)

Pre-Chorus
       x 3
e:----------------/---------]
B:-------5-----3--/---------]
G:----------------/---------]
D:---7------------/---------]
A:-7---------5----/---------]
E:----------------/---------]

       x 3
e:----------------/---------]
B:----------------/---------]
G:----------------/---------]
D:-7---------5----/---5-5---]
A:-7---------5----/---5-5---]
E:-5---------3----/-0-3-3---]

Chorus

e:---------------------------------]
B:---------------------------------]
G:---------------------------------]
D:---------------------------------]
A:-5s7----8---5---2-2-2-2-2-2-2-2--]
E:-3s5--0-6-0-3---0-0-0-0-0-0-0-0--]
                PM--------------)

Riffs played in this order-

INTRO 1  .   INTRO 2  .    VERSE    .  PRE-CHORUS  .  CHORUS  .
INTRO 2  .    VERSE   .  PRE-CHORUS .    CHORUS    .   SOLO   .
 VERSE   . PRE-CHORUS .    CHORUS   .    CHORUS    .

The lyrics are below

Suppose I say, I'm never satisfied
Suppose I say, he cuts the roots
To make the tree survive

Just let me kill you for a while
Just let me kill you for a smile
Just let me kill you once
I'm oh so born to die

Oh, I hunger
I hunger
I eat

Born into attitude
Asleep at the wheel
Throw all your bullets in the fire
And run like hell
I get a fever, what ever happened to sweat?

Suppose I say, the vultures smile at me
Suppose I say, I set them down they plan to pick you clean

And satisfaction this way comes
And satisfaction this way comes
And satisfactions here and gone
Gone, yeah, gone again

Oh, I hunger
Oh, I hunger
I eat

Born into attitude
Asleep at the wheel
Throw all your bullets in the fire
And stand there

Born into attitude
Twist mother tongue
Throw all your bullets in the fire
And run like hell
I get a fever, what ever happened to sweat?

Just let me kill you for a while
Just let me kill you for a smile
Just let me kill you once for me
I'm born to die

And satisfaction this way comes
And satisfaction this way comes
And satisfactions here and gone
Gone, gone again

Yeah, I hunger
Oh, I hunger
I eat

Born into attitude
Asleep at the wheel
Throw all your bullets in the fire
And stand there

Born into attitude
Twist mother tongue
Throwing all your bullets in the fire
And run like hell
I get a fever, what ever happened to sweat?

[---------------------------------------------------------------------------]

After second verse there's a solo - buy the book when it comes out
for that then back to Prt. 2, the chorus after the third verse is repeated
twice and thats it.










---------------


version 2 






E5       0 2 x x x x
A5       5 7 7 x x x
G5       3 5 5 x x x
E5VII    x 7 9 9 x x
B5       x 2 4 4 x x
C5       x 3 5 5 x x
D5       x 5 7 7 x x


Gtr I (Eb Ab Db Gb Bb Eb) - 'James Hetfield - Rhythm w/dist'
Gtr II (Eb Ab Db Gb Bb Eb) - 'Kirk Hammett - Rhythm w/dist'
Gtr III (Eb Ab Db Gb Bb Eb) - 'Kirk Hammett - Lead / Rhythm w/dist'

Intro
  Freely approx Q=160                         A Tempo Q=160
 4/4
  Gtr I                                       Gtrs I, II
                           ~~~~~~~~~            PM             ~~
   E      +Q   a +E  E E E Q    +H.       Q     E E E E E E E  E
|-------|---------------------|---------------|------------------|
|-------|---------------------|---------------|------------------|
|-/7b9==|=(7)--7r(7)-5-7-5----|---------------|------------------|
|-------|------------------7--|-(7)-----------|---5---5---5---/7-|
|-------|---------------------|----------12\--|---5---5---5---/7-|
|-------|---------------------|----------12\--|-0-3---3---3---/5-|


  Gtr II
  +W           +W                     +W
|------------|----------------------|---------------------|
|------------|----------------------|---------------------|
|------------|----------------------|---------------------|
|-(7)--------|-(7)------------------|-(7)-----------------|
|-(7)--------|-(7)------------------|-(7)-----------------|
|-(5)--------|-(5)------------------|-(5)-----------------|
|            |-Rhy Fill 1
| Gtr I
|  ~~~~~~~~~~~~~~~~~~~~~~~                             ~
| +W           +H     +E  E E  E      +Q   a +E  E E E Q
|------------|----------------------|---------------------|
|------------|----------------------|---------------------|
|------------|----------------/7b9==|=(7)--7r(7)-5-7-5----|
|-(7)--------|-(7)----(7)-----------|------------------7--|
|-(7)--------|-(7)----(7)-5s0-------|---------------------|
|-(5)--------|-(5)----(5)-----------|---------------------|


  +W                  +H..                E      +Q   a +E  E E E E E
|-------------------|--------------------------|-----------------------||
|-------------------|--------------------------|-----------------------||
|-------------------|---------------------7b9==|=(7)--7r(7)-5-7-5---9--||
|-(7)---------------|-(7)----------------------|------------------7-9--||
|-(7)---------------|-(7)----------------------|--------------------7--||
|-(5)---------------|-(5)----------------------|-----------------------||
|                                                       end Rhy Fill 1-|
|  ~~~
| +H.      E   E      +Q    a +E  E E E E E      +Q   a +E  E E E E E
|-------------------|--------------------------|-----------------------||
|-------------------|--------------------------|-----------------------||
|-------------------|---------------------7b9==|=(7)--7r(7)-5-7-5---9--||
|-(7)------5\-/7b9==|=(7)---7r(7)-5-7-5--------|------------------7-9--||
|-------------------|-------------------7------|--------------------7--||
|-------------------|--------------------------|-----------------------||


    Gtrs I, II
          PM|                 PM|
    +Q    E E E E E E   +Q    E E E E E E
||--------------------|-------------------|
||o-------------------|-------------------|
||--(9)\------------9-|-(9)\------------9-|
||--(9)\------4-5-5-9-|-(9)\------4-5-5-9-|
||o-(7)\------5-5-5-7-|-(7)\------5-5-5-7-|
||--------0-0---------|-------0-0---------|
 |-Rhy Fig 1

        PM|                   PM
  +Q    E E E E E E   +E  E E E E E E E
|-------------------|--------------------||
|-------------------|-------------------o||
|-(9)\--------------|-------------7---9--||
|-(9)\------4-5-5-5-|-(5)-7-7---7-7---9--||
|-(7)\------5-5-5-5-|-(5)-7-7---7-5---7-o||
|-------0-0-------3-|-(3)-5-5-0-5--------||
                           end Rhy Fig 1-|

w/Rhy Fig 1 x2
  Gtr III
   H         E  E  E  E    +Q    Q    E  E  E  E
|-----------------------|------------------------|
|-----------15-15-15-12-|-(12)\------15-15-15-12-|
|-----------14-12-14-12-|-(12)\------14-12-14-12-|
|-----------------------|------------------------|
|-----------------------|------------------------|
|-----------------------|------------------------|



   +Q    Q    E  E  E  E    +E   E  E  E  S  S  E E  E
|------------------------|--------------------------12-|
|-(12)\------15-15-15-12-|-(12)-14-14---------------12-|
|-(12)\------14-12-14-12-|-(12)-14-14-12-14-14-14------|
|------------------------|-----------------------------|
|------------------------|-----------------------------|
|------------------------|-----------------------------|



   +Q    Q    E  E  E  E    +Q    Q    E  E  E  E
|-(12)\------------------|------------------------|
|-(12)\------15-15-15-12-|-(12)\------15-15-15-12-|
|------------14-12-14-12-|-(12)\------14-12-14-12-|
|------------------------|------------------------|
|------------------------|------------------------|
|------------------------|------------------------|
|-Fill 1


   +Q    Q    E  E  E  E    +E   E  E  E  S  S  E E  E
|------------------------|--------------------------12-|
|-(12)\------15-15-15-12-|-(12)-14-14---------------12-|
|-(12)\------14-12-14-12-|-(12)-14-14-12-14-14-14------|
|------------------------|-----------------------------|
|------------------------|-----------------------------|
|------------------------|-----------------------------|



                                         Verses 1 + 2
  E5VII                                        E5
  Gtr II
    W                  +W                 +Q   q  Q  E E
    |                   |                  |   |  |  | |
    /                   /                  /   /  /  / /

  Gtr III
                 TP     TP
   +H.           Q      W                  W
|-(12)---------------|----------------||-----------------|
|-(12)----------12s==|==8\------------||o----------------|
|--------------------|----------------||-----------------|
|--------------------|----------------||-----------------|
|--------------------|----------------||o----------------|
|--------------------|----------------||-----------------|
|                          end Fill 1-|
| Gtr I
|                       TP      PM--|                PM|
|  +H     +E  E  E E    H     E E E E      E E q  Q  E E
|--------------------|----------------||-----------------|
|--------------------|----------------||o----------------|
|--(9)----(9)--------|----------------||-----------------|
|--(9)----(9)--------|----------------||-----------------|
|--(7)----(7)-7--7S6-|--6\----2-------||o--1---2--2------|
|--------------------|----------0-0-3-||-----3-0--0--0-0-|
|-Rhy Fill 2           end Rhy Fill 2-||-Rhy Fig 2


  Gtr II
  A5     G5                 E5          G5    A5
   E E E E +H          +Q   q  Q  E E   E E E E +H
   | | | |  |           |   |  |  | |   | | | |  |
   / / / /  /           /   /  /  / /   / / / /  /

  Gtr I
               PM--|              PM|               PM--|
   E E E E +E  E E E    E E q  Q  E E   E E E E +E  E E E
|--------------------|----------------|-------------------|
|--------------------|----------------|-------------------|
|--------------------|----------------|-------------------|
|-/7-7-7-5-(5)-------|----------------|-5-5-5-7-(7)-------|
|--------------------|--1---2--2------|-------------------|
|-/5-5-5-3-(3)-0-0-3-|----3-0--0--0-0-|-3-3-3-5-(5)-0-0-3-|
                                            end Rhy Fig 2-|

       E5          A5     G5                  E5
  +Q   q  Q  E E    E E E E +H          +Q    q  Q  E E
   |   |  |  | |    | | | |  |           |    |  |    |
   /   /  /  / /    / / / /  /           /    /  /    /

             PM|                PM--|
   E E q  Q  E E    E E E E +E  E E E    E  E q  Q  E E
|----------------|--------------------|-----------------|
|----------------|--------------------|-----------------|
|----------------|--------------------|-----------------|
|----------------|-/7-7-7-5-(5)-------|-----------------|
|--1---2--2------|--------------------|--1----2--2----2-|
|----3-0--0--0-0-|-/5-5-5-3-(3)-0-0-3-|-----3-0--0----0-|
|
|  W                W                    Q    q  Q  E E
|----------------|--------------------|---------------7-|
|----------------|--------------------|-----------------|
|----------------|--------------------|---------------7-|
|----------------|--------------------|-----------------|
|----------------|--------------------|-(2)---2--2------|
|----------------|--------------------|-(0)---0--0------|
                                      |-Gtr II substitutes on repeat (continues on 3rd staff)

  Gtr II
             PM--|               PM|                PM--|
  +H     +E  E E E    E  E q  Q  E E    E E E E +E  E E E
|------------------|-----------------|--------------------|
|------------------|-----------------|--------------------|
|------------------|-----------------|--------------------|
|------------------|-----------------|-/7-7-7-5-(5)-------|
|-(2)----(2)-------|--1----2--2------|-/7-7-7-5-(5)-------|
|-(0)----(0)-0-0-3-|-----3-0--0--0-0-|-/5-5-5-3-(3)-0-0-3-|
|                  |-Rhy Fig 3
| Gtr I
|            PM--|
| +H     +E  E E E
|------------------|
|------------------|
|------------------| w/Rhy Fig 2 x1.25
|------------------|
|-(2)----(2)-------|
|-(0)----(0)-0-0-3-|
|
|                                PM|
| +W                 +Q    q  Q  E E    W
|-(7)--------------|-(7)-------------|--------------------|
|------------------|-----------------|--------------------|
|-(7)--------------|-(7)-------------|--------------------|
|------------------|-----------------|--------------------|
|------------------|-------2--2------|--------------------|
|------------------|-------0--0--0-0-|--------------------|


            PM|               PM--|             PM|
  E E q  Q  E E   E E E E +E  E E E   E E q  Q  E E
|---------------|-------------------|---------------|
|---------------|-------------------|---------------|
|---------------|-------------------|---------------|
|---------------|-5-5-5-7-(7)-------|---------------|
|-1---2--2------|-5-5-5-7-(7)-------|-1---2--2------|
|---3-0--0--0-0-|-3-3-3-5-(5)-0-0-3-|---3-0--0--0-0-|
                      end Rhy Fig 3-|-Rhy Fig 3A


               PM--|             PM|
   E E E E +E  E E E   E E q  Q  E E   E E E E +E  E E E
|--------------------|---------------|-------------------||
|--------------------|---------------|-------------------||
|--------------------|---------------|-------------------||
|-/7-7-7-5-(5)-------|---------------|-5-5-5-7-(7)-------||
|-/7-7-7-5-(5)-------|-1---2--2------|-5-5-5-7-(7)-0-3-0-||
|-/5-5-5-3-(3)-0-0-3-|---3-0--0--0-0-|-3-3-3-5-(5)-------||
|                                         end Rhy Fig 3A-|
|
|              PM--|             PM|
|  E E E E +E  E E E   E E q  Q  E E   E E E E +E  E E E
|--------------------|---------------|-------------------||
|--------------------|---------------|-------------------||
|--------------------|---------------|-------------------||
|-/7-7-7-5-(5)-------|---------------|-5-5-5-7-(7)-------||
|--------------------|-1---2--2------|-------------0-3-0-||
|-/5-5-5-3-(3)-0-0-3-|---3-0--0--0-0-|-3-3-3-5-(5)-------||
                                     |-Fill 3

 Pre-Chorus- Half Time Feel
  E Q   E Q   E E   +E  E Q  E Q.       E Q   E Q   E E
|-----------------|-------------------|-----------------|
|-3-----3-----3---|-----3----3--------|-3-----3-----3---|
|---0-----0-----0-|-(0)---0----0------|---0-----0-----0-|
|-----------------|-------------------|-----------------|
|-----------------|-------------------|-----------------|
|-----------------|-------------------|-----------------|
||-Rhy Fig 4
|         PM                                    PM|
| E E E E E E Q     +H       E E  E E   E E E E E E Q
|-----------------|-------------------|-----------------|
|-----------------|-------------------|-----------------|
|-7-7-7-8-----5---|-(5)---------------|-7-7-7-8-----5---|
|-7-7-7-8---0-5---|-(5)---------------|-7-7-7-8-----5---|
|-5-5-5-6-0-0-3---|-(3)------3-0--3-0-|-5-5-5-6-0-0-3---|
|-----------------|-------------------|-----------------|


                                                          PM
  +E  E Q   E  Q.       E Q   E Q   E E   +E  E E E E E E E
|---------------------|-----------------|-------------------||
|-----3-----3---------|-3-----3-----3---|-------------------||
|-(0)---0------0------|---0-----0-----0-|-(0)---------------||
|---------------------|-----------------|-----5---5---5-----||
|---------------------|-----------------|-----5---5---5-----||
|---------------------|-----------------|-----3---3---3---0-||
|                                             end Rhy Fig 4-|
|                               PM         PM
| +H       +E  E  E E   E E E E E E Q      E  E E E E E E E
|---------------------|-----------------|-------------------||
|---------------------|-----------------|-------------------||
|-(5)------(5)--------|-7-7-7-8-----5---|-------------------||
|-(5)------(5)--------|-7-7-7-8---0-5---|-----5---5---5---5-||
|-(3)------(3)-0--3-0-|-5-5-5-6-0-0-3---|-----5---5---5---5-||
|---------------------|-----------------|--0--3---3---3---3-||


 Chorus- End H/T Feel
  $
  Gtrs I, II
          PM|          PM------|   PM          PM|
  E E E E E E Q    +E  E E E E E E E   E E E E E E Q
|----------------|-------------------|----------------|
|----------------|-------------------|----------------|
|----------------|-------------------|----------------|
|-7-7-7-8-----5--|-(5)-----------5---|-7-7-7-8-----5--|
|-7-7-7-8-----5--|-(5)-----------5---|-7-7-7-8-----5--|
|-5-5-5-6-0-0-3--|-(3)-0-0-0-0-0-3-0-|-5-5-5-6-0-0-3--|
|-Rhy Fig 5

      PM------|   PM          PM|          PM------|   PM
  +E  E E E E E E E   E E E E E E Q    +E  E E E E E E E
|-------------------|----------------|-------------------|
|-------------------|----------------|-------------------|
|-------------------|----------------|-------------------|
|-(5)-----------5---|-7-7-7-8-----5--|-(5)-----------5---|
|-(5)-----------5---|-7-7-7-8-----5--|-(5)-----------5---|
|-(3)-0-0-0-0-0-3-0-|-5-5-5-6-0-0-3--|-(3)-0-0-0-0-0-3-0-|


                  1.
          PM|      PM
  E E E E E E Q    E E E E E E E E
|----------------|-----------------|
|----------------|-----------------|
|----------------|-----------------|
|-7-7-7-8-----5--|---5---5---5---7-|
|-7-7-7-8-----5--|---5---5---5---7-|
|-5-5-5-6-0-0-3--|-0-3---3---3---5-|
                     end Rhy Fig 5-|

  Gtr II
  +W                  +H..                E      +Q   a +E  E E E E E
|-------------------|--------------------------|-----------------------|
|-------------------|--------------------------|-----------------------|
|-------------------|---------------------7b9==|=(7)--7r(7)-5-7-5---9--|
|-(7)---------------|-(7)----------------------|------------------7-9--|
|-(7)---------------|-(7)----------------------|--------------------7--|
|-(5)---------------|-(5)----------------------|-----------------------|
|-Rhy Fill 4                                            end Rhy Fill 4-|
|
| Gtr I
| +H.      E   E      +Q    a +E  E E E E E      +Q   a +E  E E E E E
|-------------------|--------------------------|-----------------------|
|-------------------|--------------------------|-----------------------|
|-------------------|---------------------7b9==|=(7)--7r(7)-5-7-5---9--|
|-(7)------5\-/7b9==|=(7)---7r(7)-5-7-5--------|------------------7-9--|
|-(7)---------------|-------------------7------|--------------------7--|
|-(5)---------------|--------------------------|-----------------------|
|-Rhy Fill 4A                                          end Rhy Fill 4A-|


Rhy Fig 1

Rhy Fig 1 + Fill 1


                                                  2.,D.S.
  E5
  Gtr II
    W                      +W                     W
    |                       |
    /                       /
  Gtr I                                       Gtrs I, II
                                        PM--------|
   +H     +E  +E   E +E     E E E E  E  E E E     E E E E E E E E
|------------------------|---------------------||-----------------|
|------------------------|--------------------o||-----------------|
|--(9)----(9)-(9)s=8-(8)s|==7s6s5--------------||-----------------|
|--(9)----(9)-(9)s=8-(8)s|==7s6s5--------------||---5---5---5---5-|
|--(7)----(7)-(7)s=6-(6)s|==5s4s3-3s13\-------o||---5---5---5---5-|
|------------------------|--------------0-0-3--||-0-3---3---3---3-|


w/Rhy Fig 5
  Gtr III
   E  E  E  E  Q   Q    +E  E E E E E E E    E  E  E  E  Q    Q
|---------------------|-------------------|----------------------|
|-10-10-10-11-11S==8--|-(8)-8-8-8-8-8-8-8-|-10-10-10-11-11S==15--|
|---------------------|-------------------|----------------------|
|--7--7--7--8--8S==5--|-(5)-5-5-5-5-5-5-5-|--7--7--7--8--8S==12--|
|---------------------|-------------------|----------------------|
|---------------------|-------------------|----------------------|



   +E   E  E  E  E  E  Q      E  E  E  E  Q   Q    +E  E E E E E E E
|--------------------------|---------------------|-------------------|
|-(15)-15-15-15-15-15-15S==|=10-10-10-11-11S==8--|-(8)-8-8-8-8-8-8-8-|
|--------------------------|---------------------|-------------------|
|-(12)-12-12-12-12-12-12S==|==7--7--7--8--8S==5--|-(5)-5-5-5-5-5-5-5-|
|--------------------------|---------------------|-------------------|
|--------------------------|---------------------|-------------------|


                                    To Coda
   E  E  E  E  Q    Q     +E   E E E E E E E
|----------------------|---------------------|
|-10-10-10-11-11S==15--|-(15)\---------------|
|----------------------|---------------------|
|--7--7--7--8--8S==12--|-(12)\-5---5---5---7-|
|----------------------|-------5---5---5---7-|
|----------------------|-------3---3---3---5-|


w/Fills 4 +4A
  +W                  +W                         +H.              Q
|-------------------|--------------------------|-----------------------|
|-------------------|--------------------------|-----------------------|
|-------------------|--------------------------|-----------------------|
|-(7)---------------|-(7)----------------------|-(7)-------------------|
|-(7)---------------|-(7)----------------------|-(7)-------------------|
|-(5)---------------|-(5)----------------------|-(5)-------------------|
|-Rhy Fill 6                                            end Rhy Fill 6-|


Rhy Fig 1


 Interlude - H/T Feel
        E5
  Gtr III
  +Q    Q    Q       E  E     Q     Q        Q     E  E
   |    |    |          |     |     |        |        |
   /    /    /          /     /     /        /        /

  Gtr II
        PM|             ~~~~~~~~~~
  +Q    E E  Q       E  E    +Q     E  E  a  E  E  E  E
|-------------------------|-----------------------------|
|-----------15------15----|-----------------------------|
|-(9)\------14b16---14-12-|-(12)---------------12-14----|
|-(9)\--------------------|--------14-12-12h14-------14-|
|-(7)\--------------------|-----------------------------|
|-------0-0---------------|-----------------------------|
|
| Gtr I
|       PM|
| +Q    E E  E    E  E  E    +Q     E  E     E  E  E  E
|-------------------------|-----------------------------|
|------------7h===8--8--8-|--(8)\-----------------------|
|-(9)\------------------9-|--(9)\---------------7--9----|
|-(9)\--------------------|--------/9--7-----9--------9-|
|-(7)\--------------------|-----------------------------|
|-------0-0---------------|-----------------------------|


   +Q    Q    Q       E  E
    |    |    |          |
    /    /    /          /

         PM|             ~~
   +Q    E E  Q       E  E
|--------------------------|
|------------15------15----|
|------------14b16---14-12-|
|-(14)\--------------------|
|--------------------------|
|--------0-0---------------|
|
|        PM|
|  +Q    E E  E    E  E  E
|--------------------------|
|-------------7h===8--8--8-|
|------------------------9-|
|--(9)\--------------------|
|--------------------------|
|--------0-0---------------|


    Q     Q        Q     E  E
    |     |        |        |
    /     /        /        /

    ~~~~~
   +Q     E  E  a  E  E  E  E
|-----------------------------|
|-----------------------------|
|-(12)---------------12-14----|
|--------14-12-12h14-------14-|
|-----------------------------|
|-----------------------------|
|
|  +Q     E  E     E  E  E  E
|-----------------------------|
|--(8)\-----------------------|
|--(9)\---------------7--9----|
|--------/9--7-----9--------9-|
|-----------------------------|
|-----------------------------|


   +Q    Q    Q       E  E     Q     Q        Q     E  E
    |    |    |          |     |     |        |        |
    /    /    /          /     /     /        /        /

         PM|             ~~~~~~~~~~
   +Q    E E  Q       E  E    +Q     E  E  a  E  E  E  E
|--------------------------|------------------------------|
|------------15------15----|------------------------------|
|------------14b16---14-12-|-(12)---------------12-14-----|
|-(14)\--------------------|--------14-12-12h14-------14--|
|--------------------------|------------------------------|
|--------0-0---------------|------------------------------|
|
|        PM|
|  +Q    E E  E    E  E  E    +Q     E  E     E  E  E  E
|--------------------------|------------------------------|
|-------------7h===8--8--8-|--(8)\------------------------|
|------------------------9-|--(9)\---------------7--9-----|
|--(9)\--------------------|--------/9--7-----9--------9--|
|--------------------------|------------------------------|
|--------0-0---------------|------------------------------|


   +Q      Q     Q     E  E    +Q      Q     Q     E  E
    |      |     |        |     |      |     |        |
    /      /     /        /     /      /     /        /

   +Q      E  E  E  E  E  E    +Q      E  E  E  E  Q
|---------------------------|---------------------------|
|---------------------------|---------------------------|
|------------------12-14----|------------------12-------|
|-(14)\--/14-12-14-------14-|-(14)\--/14-12-14----14\---|
|---------------------------|---------------------------|
|---------------------------|---------------------------|
|
|  +Q      E  E  E  E  E  E    +Q      E  E  E  E  E  E
|---------------------------|---------------------------|
|---------------------------|---------------------------|
|-------------------7--9----|-------------------7-------|
|--(9)\---/9--7--9--------9-|--(9)\---/9--7--9-----9--7-|
|---------------------------|---------------------------|
|---------------------------|---------------------------|


    W
    |
    /

                         ~~~~
    E  E E  E E  E      +E   +E
|---------------------------------|
|---------------------------------|
|-----12---12---12-----(12)-(12)\-|
|-/14-----------------------------|
|---------------------------------|
|---------------------------------|
|
|   E  E E  E E  Q           +E
|---------------------------------|
|---------------------------------|
|-----12---12---12b13=======(12)r-|
|-/14-----------------------------|
|---------------------------------|
|---------------------------------|


   +W                                 +W
    |                                  |
    /                                  /

    E  E E  E E  E      +Q             E  E E  E E  E        +Q
|----------------------------------|-----15---15---15-------(15)\-------|
|-----15---15---15-----(15)\-------|-/17--------------------------------|
|-/16------------------------------|------------------------------------|
|----------------------------------|------------------------------------|
|----------------------------------|------------------------------------|
|----------------------------------|------------------------------------|
|
|   E  E E  E E  Q            +E       E  E E  E E  Q              +E
|----------------------------------|------------------------------------|
|----------------------------------|-----15---15---15b15.5========(15)r-|
|-----12---12---12b13========(12)r-|-/16--------------------------------|
|-/14------------------------------|------------------------------------|
|----------------------------------|------------------------------------|
|----------------------------------|------------------------------------|


  Gtr III
  PM                                   PM----------|
  E E E E E E E E   +H..       E    E  E  E   E  E  E  E  E
|-----------------|--------------|--------------------------||
|-----------------|--------------|--------------------------||
|-----------------|--------------|--------------------12-14-||
|---5---5---5---7-|-(7)----------|--------------12-14-------||
|---5---5---5---7-|-(7)--------0-|----10-12--14-------------||
|-0-3---3---3---5-|-(5)----------|-12-----------------------||
|
| Gtrs I, II
| PM                                                PM---|
| E E E E E E E E   +H..       E    Q     Q      E  E  E  E
|-----------------|--------------|--------------------------||
|-----------------|--------------|--------------------------||
|-----------------|--------------|--------------------------||
|---5---5---5---7-|-(7)----------|--------------------------||
|---5---5---5---7-|-(7)----------|--------------------------||
|-0-3---3---3---5-|-(5)--------xs|==xs====x\--------0--0--3-||


 Guitar Solo
w/Rhy Fig 3 x2
           ~~~~~~~       ~~~~~~~~~       ~~~~~~~
   Q    E  E  +E   E  E  E    +E   E  E  E  +E   E  E  E
|--------------------------|-----------------------------|
|------15------------15----|---------15------------15----|
|-16------16-(16)-16----16-|-(16)-16----16-(16)-16----16-|
|--------------------------|-----------------------------|
|--------------------------|-----------------------------|
|--------------------------|-----------------------------|


      ~~         ~~
   E  Q    E  E  Q    E    E  E  E  E  E   E  E  E
|-----------------------|--------------------------|
|-15---------15---------|-15-------15-15--15-15-12-|
|----16---16----16---16-|----16-16-16-16--16-16-13-|
|-----------------------|--------------------------|
|-----------------------|--------------------------|
|-----------------------|--------------------------|


                                                  ~~~
   E  E  E  E  E  E  E  E    E  E  E  E  E   E E  E
|-------------------------|-------------------------|
|-15-15-15-14-14-14-12-12-|-------------------------|
|-16-16-16-14-14-14-12-12-|-------------------------|
|-------------------------|-14-14-12-14-----12---14-|
|-------------------------|-------------------------|
|-------------------------|-------------------------|


 ~~~~~~                                       ~~~~~~~
   +E   E  E  E  +Q        +Q        E  E  E  E  +E   E  E  E
|---------------------------------|---------------------------|
|------------14-(14)b15===(14)r---|---------------------12-14-|
|---------12-14-(14)b15===(14)r---|-12------------------12-14-|
|-(14)-14-------------------------|----14-12-14-(14)-14-------|
|---------------------------------|---------------------------|
|---------------------------------|---------------------------|


  E5
  Gtrs I, II
   Q          Q             E    E   E  E
   |          |             |    |   |  |
   /          /             /    /   /  /

  Gtr III
   E     +E   E  E  a      +E   +E   E  E
|-----------------------------------------|
|-14b15r(14)-12-14-14b15==(14)r(14)-12-14-|
|-14b15r(14)-12-14-14b16==(14)r(14)-12-14-|
|-----------------------------------------|
|-----------------------------------------|
|-----------------------------------------|


         G5
           Q        H.
           |        |
           /        /

   a      +E   +E   E   E  E  E      +E    E
|-----------------------------------------12-|
|-14b15==(14)r(14)------------------------12-|
|-14b16==(14)r(14)-12-----12-14b16==(14)r----|
|----------------------14--------------------|
|--------------------------------------------|
|--------------------------------------------|


  B5                                     C5          B5              C5
   Q     Q            E  E  E     E    E  E     E  E  E       E    E  E
   |     |            |  |  |     |    |  |     |  |  |       |    |  |
   /     /            /  /  /     /    /  /     /  /  /       /    /  /

   E  E  E      +E    E  E  E     E    E  E     E  E  E      +E    E  E
|-12-12--------------12-------------|----------12-----------------12----|
|-12-12-15b17==(15)r-12-12-15b16-12-|-12-15b17-12-12-15b17==(15)r-12-15-|
|-----------------------------------|-----------------------------------|
|-----------------------------------|-----------------------------------|
|-----------------------------------|-----------------------------------|
|-----------------------------------|-----------------------------------|


         E5
           Q        Q             E    E   E  E
           |        |             |    |   |  |
           /        /             /    /   /  /

   a      +E   +E   E  E  a      +E   +E   E  E
|------------------------------------------------|
|-14b15==(14)r(14)-12-14-14b15==(14)r(14)-12-14--|
|-14b16==(14)r(14)-12-14-14b16==(14)r(14)-12-14--|
|------------------------------------------------|
|------------------------------------------------|
|------------------------------------------------|


         G5
           Q        H.
           |        |
           /        /

   a      +E   +E   E   E  a      +E   +E   E  E
|------------------------------------------------|
|-14b15==(14)r(14)-12--14-14b15==(14)r(14)-------|
|-14b16==(14)r(14)-12--14-14b16==(14)r(14)-12----|
|---------------------------------------------14-|
|------------------------------------------------|
|------------------------------------------------|


  B5                                      D5                       E5VII
   Q          Q       E     E  E  E         Q        Q     Q     E  E
   |          |       |     |  |  |         |                       |
   /          /       /     /  x  x         /                       /

   E  E      +E    E  S  S  E  E  E        +E   +E   E  E  E  E  E  E
|-----------------12--------------------|---------------------------------|
|-----------------12-15p12----12-14b15==|=(14)r(14)-12----12-15p12-12-----|
|-12-14b16==(14)r----------14-12-14b15==|=(14)r(14)-12----12-------14b16==|
|---------------------------------------|--------------14-----------------|
|---------------------------------------|---------------------------------|
|---------------------------------------|---------------------------------|


w/Rhy Fig 1 x2
  Gtr III
   +Q     a  +E   E  E  E  E  E        +Q       E  E  a      +E   +E   E  E
|-----------------------------------|---------------------------------------|
|-(12)-----------------------12-----|-(12)\----------14b15==(14)r(14)-12-14-|
|-(14)---14r(14)-12----12-14-14b16==|=(14)r\------12-14b16==(14)r(14)-12-14-|
|-------------------14--------------|---------/14---------------------------|
|-----------------------------------|---------------------------------------|
|-----------------------------------|---------------------------------------|


   +E       +E    E  E  E  E  E  E        +E    E  E  E  E     E  E  E
|--------------------------------------|----------12----------12-------------|
|-(14)b15==(14)r-----------------------|-------12----12-15b17----12-15b17====|
|-(14)b16==(14)r-12----12-14-12-14b16==|=(14)r-------------------------------|
|-------------------14-----------------|-------------------------------------|
|--------------------------------------|-------------------------------------|
|--------------------------------------|-------------------------------------|


                            ~~~~~~~~~~~~~~
   +Q     E      +E      E  Q       E        +Q       E  E  E  E  E  E
|--------12-----(12)\------12------12-----|-(12)\----------12-12-12-12-----|
|-(15)r--15b17==(15)r\-/15-15b17---15b17==|=(15)r\------12-12-12-12-15b17==|
|-----------------------------------------|---------/14--------------------|
|-----------------------------------------|--------------------------------|
|-----------------------------------------|--------------------------------|
|-----------------------------------------|--------------------------------|


                                                                     PM
   +Q       q        S  +S   E  E  E          +E    E  E  E  E  Q    E
|-(12)\------------------------------------|---------------------------|
|-(15)r\-----------------------------------|---------------------------|
|---------/14b16====14r(14)p12----12b12.5==|=(12)r---------------------|
|------------------------------14----------|-------14-12-------12------|
|------------------------------------------|-------------14-13------14-|
|------------------------------------------|---------------------------|


w/Rhy Fill 2
  Gtr II
  E5VII
   W                      +W
   |                       |
   /                       /

       ~~~~~~~~~~~~~~~~~~~~~~~
   E   Q.    +H           +W
|----------------------|----------------||
|----------------------|----------------||
|----------------------|----------------||
|-12h=14----(14)-------|-(14)-----------||
|----------------------|----------------||
|----------------------|----------------||



 Bridge
                        A5    G5                          G5    A5
   +Q    Q       H      E E E E +Q   +Q     W             E E E E +Q   +Q
    |                   | | | |  |    |                   | | | |  |    |
    /                   / / / /  /    /                   / / / /  /    /

    ~~~~
   +Q.      +E   H      W                   W             W
|---------------------|-------------------|-------------|-------------------|
|---------------------|-------------------|-------------|-------------------|
|---------------------|-------------------|-------------|-------------------|
|-(14)-----(14)\------|-------------------|-------------|-------------------|
|---------------------|-------------------|-------------|-------------------|
|---------------------|-------------------|-------------|-------------------|
|
|                                  PM---|                            PM---|
|   E  E Q       H      H        E E  E E   E E Q  H      H        E E  E E
|---------------------|-------------------|-------------|-------------------|
|---------------------|-------------------|-------------|-------------------|
|---------------------|-------------------|-------------|-------------------|
|---------------------|-------------------|-------------|-------------------|
|---1--2--------------|-------------------|-1-2---------|-------------------|
|------0--------------|------------0--0-3-|---0---------|------------0--0-3-|


                A5    G5                          E5
  Gtr II
  W             E E E E +Q   +Q     H       Q   E E   +W
                | | | |  |    |                   |    |
                / / / /  /    /                   /    /

  Gtr I
                           PM---|                                PM--|
  E E Q  H      H        E E  E E   E E E Q   Q   E   +H     +E  E E E
|-------------|-------------------|-----------------|------------------|
|-------------|-------------------|-----------------|------------------|
|-------------|-------------------|-----------------|------------------|
|-------------|-------------------|-----------------|------------------|
|-1-2---------|-------------------|-1-2-----------2-|-(2)----(2)-------|
|---0---------|------------0--0-3-|---0-----------0-|-(0)----(0)-0-0-3-|


  E E E E E E E E    E E E E  E  E E E   E E E E E E E E   E E E E  E  E E E
  | | | |   | | |      | | |  |  |   |   | |   | | |   |   | |   |     | | |
  x x x x   x x x      x x x  x  x   x   x x   x x x   x   x x   x     x x x

                                 PM--|                                 PM--|
  E E E Q   Q   E    E E E E +E  E E E   E E E Q   Q   E   E E E E +E  E E E
|-----------------|--------------------|-----------------|-------------------|
|-----------------|--------------------|-----------------|-------------------|
|-----------------|--------------------|-----------------|-------------------|
|---------------x-|-/7-7-7-5-(5)-------|---------------x-|-5-5-5-7-(7)-------|
|-1-2-----------x-|--------------------|-1-2-----------x-|-------------------|
|---0-----------x-|-/5-5-5-3-(3)-0-0-3-|---0-----------x-|-3-3-3-5-(5)-0-0-3-|


w/Rhy Fig 3A
  Gtr II
            PM|                PM--|             PM|
  E E q  Q  E E    E E E E +E  E E E   E E q  Q  E E   E E E E +E  E E E
|---------------|--------------------|---------------|-------------------||
|---------------|--------------------|---------------|-------------------||
|---------------|--------------------|---------------|-------------------||
|---------------|-/7-7-7-5-(5)-------|---------------|-5-5-5-7-(7)-------||
|-1---2--2------|--------------------|-1---2--2------|-------------0-3-0-||
|---3-0--0--0-0-|-/5-5-5-3-(3)-0-0-3-|---3-0--0--0-0-|-3-3-3-5-(5)-------||


 Pre-Chorus
w/Rhy Fig 4
  Gtr I
          PM            PM----|                  PM
  E E E E E E Q     +E  E E E E E  E E   E E E E E E Q
|-----------------|--------------------|-----------------|
|-----------------|--------------------|-----------------|
|-7-7-7-8-----5---|-(5)----------------|-7-7-7-8-----5---|
|-7-7-7-8---0-5---|-(5)-0-0-0-0--------|-7-7-7-8---0-5---|
|-5-5-5-6-0-0-3---|-(3)-0-0-0-0-0--3-0-|-5-5-5-6-0-0-3---|
|-----------------|--------------------|-----------------|


                                             D.S. al Coda
      PM----|                  PM|        PM
  +E  E E E E E  E E   E E E E E E Q      E  E E E E E E E
|--------------------|-----------------|-------------------||
|--------------------|-----------------|-------------------||
|-(5)----------------|-7-7-7-8-----5---|-------------------||
|-(5)-0-0-0-0--------|-7-7-7-8-----5---|-----5---5---5---5-||
|-(3)-0-0-0-0-0--3-0-|-5-5-5-6-0-0-3---|-----5---5---5---5-||
|--------------------|-----------------|--0--3---3---3---3-||


  &
w/Rhy Fill 6
  Gtr II
   W                  +H..                E      +Q   a +E  E E E Q
|-------------------|--------------------------|-----------------------|
|-------------------|--------------------------|-----------------------|
|-------------------|---------------------7b9==|=(7)--7r(7)-5-7-5------|
|-(7)---------------|-(7)----------------------|------------------7\---|
|-(7)---------------|-(7)----------------------|-----------------------|
|-(5)---------------|-(5)----------------------|-----------------------|
|
| Gtr I
|  H.      E   E      +Q    a +E  E E E E E      +Q   a +E  E E E Q
|-------------------|--------------------------|-----------------------|
|-------------------|--------------------------|-----------------------|
|-------------------|---------------------7b9==|=(7)--7r(7)-5-7-5------|
|-(7)------5\-/7b9==|=(7)---7r(7)-5-7-5--------|------------------7\---|
|-(7)---------------|-------------------7------|-----------------------|
|-(5)---------------|--------------------------|-----------------------|


  Gtrs I, II
                 ~~
    E  E E  E E  Q   +E       E  E E  E E  E  +Q
|-------------------------|------------------------------|
|-------------------------|-----15---15---15-(15)\-------|
|-----12---12---12--(12)\-|-/16--7----7----7-------(7)b9-|
|-/14--5----5----5---(5)\-|--/9--------------------------|
|--/7---------------------|------------------------------|
|-------------------------|------------------------------|
    E  E E  E E  Q   +E       E  E E  E E  Q       +E


  H.=H
                   E5
                 Gtr II
  W                W             +W
                   |              |
                   /              /

                 Gtr I
  E E E E E Q.     H.      E E    Q   Q  H
|----------------|-------------|--------------*|
|----------------|-------------|--------------*|
|----------------|-------------|--------------*|
|---5---5---5----|---------2-2-|--2/----------*|
|---5---5---5----|-2-------2-2-|--2/----------*|
|-0-3---3---3----|-0-------0-0-|--------------*|









Suppose I say, I'm never satisfied
Suppose I say, he cuts the roots
To make the tree survive

Just let me kill you for a while
Just let me kill you for a smile
Just let me kill you once
I'm oh so bored to death

Oh, I hunger
I hunger
I eat

Born into attitude
Asleep at the wheel
Throw all your bullets in the fire
And run like hell
Why cure the fever? what ever happened to sweat?

Suppose I say, the vultures smile at me
Suppose I say, I sent them down and they plan to pick you clean

And satisfaction this way comes
And satisfaction this way comes
And satisfactions here and gone
Gone, yeah, gone again

Oh, I hunger
Oh, I hunger
I eat

Born into attitude
Asleep at the wheel
Throw all your bullets in the fire
And stand there

Born into attitude
Twist mother tongue
Throw all your bullets in the fire
And run like hell
Why cure the fever? What ever happened to sweat?

Just let me kill you for a while
Just let me kill you for a smile
Just let me kill you once for me
I'm bored to death

And satisfaction this way comes
And satisfaction this way comes
And satisfactions here and gone
Gone, gone again

Yeah, I hunger
Oh, I hunger
I eat

Born into attitude
Asleep at the wheel
Throw all your bullets in the fire
And stand there

Born into attitude
Twist mother tongue
Throwing all your bullets in the fire
And run like hell
Why cure the fever? What ever happened to sweat?










---------------


version 3






Tune 1/2 step down
(Eb Ab Db Gb Bb eb)


Intro/Main Riff
----------------

eb|------------------------------------------------------------------------------|
Bb|------------------------------------------------------------------------------|
Gb|---7b9--7-5-7-5---------------------7b9--7-5-7-5----------------------9\------|
Db|----------------7v------5-5-5/7v-----------------7v--7b9--7-5-7-5-----9\------|
Ab|------------------------5-5-5/7v----------------------------------7---7\------|
Eb|---------------------0--3-3-3/5v----------------------------------------------|


Bridge
-------

eb|------------------------------------------------------------------------------|
Bb|------------------------------------------------------------------------------|
Gb|----------------------------------------------------------9\------------------|
Db|------4h5-5--9\-------4h5-5--9\------4h5-5--7---7-7-7-----9\------------------|
Ab|------5---5--7\-------5---5--7\------5---5--7---7-7-7-----7\------------------|
Eb|--0-0-------------0-0------------0-0--------5-0-5-5-5--0----------------------|
     pm.             ...            ...          .        .


Verses
-------

eb|------------------------------------------------------------------------------|
Bb|------------------------------------------------------------------------------|
Gb|------------------------------------------------------------------------------|
Db|--7\5--2--2-------5-5-5/7-----------------------------------------------------|
Ab|--7\5--2--2-------5-5-5/7-----------------------------------------------------|
Eb|--5\3--0--0--0-0--3-3-3/5--0-0------------------------------------------------|
                pm.           ...

Prechorus
----------

The first part of the bar is what James plays, the
second part is what Kirk plays.

eb|----------------------------------|-------------------------------------------|
Bb|----------------------------------|---3-----3-----3-----3---------------------|
Gb|--7-7-7--8-----5------------------|-----0-----0-----0-----0-------------------|
Db|--7-7-7--8-----5------------------|-------5-----5-----5-----5-----------------|
Ab|--5-5-5--6--0--3--3-3-3-3-3-3-----|-------------------------------------------|
Eb|----------------------------------|-------------------------------------------|
                     pm.........

Chorus
-------

eb|------------------------------------------------------------------------------|
Bb|------------------------------------------------------------------------------|
Gb|------------------------------------------------------------------------------|
Db|-7-7-7--8-----5---------------------------------------------------------------|
Ab|-7-7-7--8-----5-5-5-5-5-5-5---------------------------------------------------|
Eb|-5-5-5--6--0--3-3-3-3-3-3-3---------------------------------------------------|
                   pm.........








Suppose I say, I'm never satisfied
Suppose I say, he cuts the roots
To make the tree survive

Just let me kill you for a while
Just let me kill you for a smile
Just let me kill you once
I'm oh so bored to death

Oh, I hunger
I hunger
I eat

Born into attitude
Asleep at the wheel
Throw all your bullets in the fire
And run like hell
Why cure the fever? what ever happened to sweat?

Suppose I say, the vultures smile at me
Suppose I say, I sent them down and they plan to pick you clean

And satisfaction this way comes
And satisfaction this way comes
And satisfactions here and gone
Gone, yeah, gone again

Oh, I hunger
Oh, I hunger
I eat

Born into attitude
Asleep at the wheel
Throw all your bullets in the fire
And stand there

Born into attitude
Twist mother tongue
Throw all your bullets in the fire
And run like hell
Why cure the fever? What ever happened to sweat?

Just let me kill you for a while
Just let me kill you for a smile
Just let me kill you once for me
I'm bored to death

And satisfaction this way comes
And satisfaction this way comes
And satisfactions here and gone
Gone, gone again

Yeah, I hunger
Oh, I hunger
I eat

Born into attitude
Asleep at the wheel
Throw all your bullets in the fire
And stand there

Born into attitude
Twist mother tongue
Throwing all your bullets in the fire
And run like hell
Why cure the fever? What ever happened to sweat?










---------------


version 4










Intro Part 1

Gtr 1
       * Very quick hammer on and very slow bend.
e:----------------------------------------------------------------------]
B:----------------------------------------------------------------------]
G:----------------------------------------------------------------------]
D:-5h7bbbbbb9--7-5-7-5----------------------5h7bbbbbb9--7-5-7-5---------]
A:---------------------7~~~~~\----------------------------------7~~~~~\-]
E:----------------------------------------------------------------------]

Gtr 2

e:--------------------------------------]
B:--------------------------------------]
G:--------------------------------------]
D:-------------------------5--5--5-5s7--]
A:-------------------------5--5--5-5s7--]
E:-----------------------0-3--3--3-3s5--]

Intro Part 2

   Gtr 1 Only   Both                                
e:--------------{--------------/
B:--------------5--------------/
G:--------------7bb9-7-5-7-7-9-/
D:-7bb9-7-5-7-5------------7-9-/
A:-------------------------5-7-/
E:-----------------------------/
                              

                        x4
e:------------------------------------------------------/-]
B:------------------------------------------------------/-]
G:-----------9\------------9\-----------------------7-9-/-]
D:-----4h5---9\------4h5---9\-----4h5---------------7-9-/-]
A:-----5-----7\------5-----7\-----5-----5----7----5-5-7-/-]
E:-0-0-----0-----0-0-----0----0-0-----0-3--0-5--0-3-----/-]
PM(E only------------------------)

Verse 

e:----------------------------------------]
B:----------------------------------------]
G:----------------------------------------]
D:----------------------------------------]
A:-7s5-2-2---7-7-7-5---7s5-2-2---5-5-5-7--]
E:-5s3-0-0---5-5-5-3---5s3-0-0---3-3-3-5--]

e:------------------------------------------------]
B:------------------------------------------------]
G:------------------------------------------------]
D:------------------------------------------------]
A:-7s5-2-2---7-7-7-5---7s5-2-2---2-2-2-2-2-2-2-2--]
E:-5s3-0-0---5-5-5-3---5s3-0-0---0-0-0-0-0-0-0-0--]
                               PM--------------)

Pre-Chorus
       x 3
e:----------------/---------]
B:-------5-----3--/---------]
G:----------------/---------]
D:---7------------/---------]
A:-7---------5----/---------]
E:----------------/---------]

       x 3
e:----------------/---------]
B:----------------/---------]
G:----------------/---------]
D:-7---------5----/---5-5---]
A:-7---------5----/---5-5---]
E:-5---------3----/-0-3-3---]

Chorus

e:---------------------------------]
B:---------------------------------]
G:---------------------------------]
D:---------------------------------]
A:-5s7----8---5---2-2-2-2-2-2-2-2--]
E:-3s5--0-6-0-3---0-0-0-0-0-0-0-0--]
                PM--------------)

Riffs played in this order-

INTRO 1  .   INTRO 2  .    VERSE    .  PRE-CHORUS  .  CHORUS  .
INTRO 2  .    VERSE   .  PRE-CHORUS .    CHORUS    .   SOLO   .
 VERSE   . PRE-CHORUS .    CHORUS   .    CHORUS    .

The lyrics are below

Suppose I say, I'm never satisfied
Suppose I say, he cuts the roots
To make the tree survive

Just let me kill you for a while
Just let me kill you for a smile
Just let me kill you once
I'm oh so born to die

Oh, I hunger
I hunger
I eat

Born into attitude
Asleep at the wheel
Throw all your bullets in the fire
And run like hell
I get a fever, what ever happened to sweat?

Suppose I say, the vultures smile at me
Suppose I say, I set them down they plan to pick you clean

And satisfaction this way comes
And satisfaction this way comes
And satisfactions here and gone
Gone, yeah, gone again

Oh, I hunger
Oh, I hunger
I eat

Born into attitude
Asleep at the wheel
Throw all your bullets in the fire
And stand there

Born into attitude
Twist mother tongue
Throw all your bullets in the fire
And run like hell
I get a fever, what ever happened to sweat?

Just let me kill you for a while
Just let me kill you for a smile
Just let me kill you once for me
I'm born to die

And satisfaction this way comes
And satisfaction this way comes
And satisfactions here and gone
Gone, gone again

Yeah, I hunger
Oh, I hunger
I eat

Born into attitude
Asleep at the wheel
Throw all your bullets in the fire
And stand there

Born into attitude
Twist mother tongue
Throwing all your bullets in the fire
And run like hell
I get a fever, what ever happened to sweat?








--------------
Want More Free Lessons?

Browse through the Archive!

PROBLEM WITH THIS TAB? | VIEW FULL SCREEN | PRINT

ZLZ.COMTigerGPS