Lessons/Tabs are sorted alphabetically.

Tab Vault

PROBLEM WITH THIS TAB?   VIEW FULL SCREEN   PRINT

Bad Seed

Metallica
Bad Seed by Metallica






                                Bad Seed 








Below are 2 different tabbings for the same song.  They sound the same only they use 

2 different tunings.  The first one uses a dropped D type tuning (except it's flat) 

and the second one uses a standard tuning except the low 'E' string is tuned to C#.

Db = C# (just incase you don't know any music theory)  The first tab will sound fuller

on some of the riffs because it's easier to do power chords in that tuning, but the

second will be easier to play if you don't want to change the tuning of your guitar,

you can play it in standard tuning, it will just sound higher than the album.

Bad Seed (dropped Db)





tune all guitars dropped D down 1/2 step (dropped Db)

low to high  Db, Ab, Db, Gb, Bb, eb,

coughing and drum intro

1)

eb--------------------------------------------------------------------
Bb--------------------------------------------------------------------
Gb--------------------------------------------------------------------
Db---------------------------3--------------------------0-0-0-0-------
Ab--5-3-0--------5-3-0-------3-5-3-0--------5-3-0-------0-0-0-0-------
Db--------5-3-0--------5-3-0-3-------5-3-0--------5-3-0-0-0-0-0-3~~3~~

intro riff

2)

Db----0-0-0-0-0-------------0-0-0-0-0-------------3-3-3-3-5--6-6
Ab----0-0-0-0-0-------------0-0-0-0-0-------------3-3-3-3-5--6-6
Db--3p0-0-0-0-0-5p0-3h5-3p0-0-0-0-0-0-5p0-3h5-3p0-3-3-3-3-5--6-6
     pm........             .........             ..............

3)

Db----0-0-0-------0-0-0-------0-0-0
Ab----0-0-0-------0-0-0-------0-0-0
Db--3p0-0-0-0h2h3-0-0-0-0h2h3-0-0-0
     pm....       .....       .....      

verse

"Come clean, fess up."

4a) James

Db--5-3----------5-3---------7
Ab------5-3----------5-3-----5
Db----------8-5----------8-5--4b) Kirk

Db--5-5-5-5-5-5-5-7
Ab--5-5-5-5-5-5-5-7
Db--5-5-5-5-5-5-5-7

bridge

"Ladies and gentilmen"

5a) James

Db--3-3-3-3-0----------------3-3-3-3-0----------------3-3-3-3-5------------
Ab--3-3-3-3-0----------------3-3-3-3-0----------------3-3-3-3-5------------
Db--3-3-3-3-0-0h5p0-3h5-3p0--3-3-3-3-0-0h5p0-3h5-3p0--3-3-3-3-5-5p0-3h5-3p05b) Kirk

eb------------5~~~~~~~~~~--------------10~~~~~~~~~~-------------5~~~~~~----
Bb--------------------------------------------------------------4----------
Gb-------------------------------------------------------------------------
Db--3-3-3-3------------------3-3-3-3------------------3-3-3-3--------------
Ab--3-3-3-3------------------3-3-3-3------------------3-3-3-3--------------
Db--3-3-3-3------------------3-3-3-3------------------3-3-3-3--------------

Chorus

"Swing the noose again."

6)

Db--0-0-0-0-3-3-3-3-5-5-5-5-6-6-6-6
Ab--0-0-0-0-3-3-3-3-5-5-5-5-6-6-6-6
Eb--0-0-0-0-3-3-3-3-5-5-5-5-6-6-6-6

"Choking on a bad seed" (about 2:00)-----------------------------------------------------------Bad Seed (standard C#)







Yeah, yeah
Yeah, yeah
Oh yeah

Yeah
Yeah, yeah

Come clean
Fix up
Tell all
Spill guts

I'm the bad
Stand revealed
Show the card
Bring it on, break the seal

Ladies and gentleman
Step right up and see the man who bought the truth

Swing the noose again
Pierce the apple skin
You bit more than you need
Oh, you're choking on a bad seed
On a bad seed
Ah, choking

Yeah
Let it on
Load up
Confess
Care so

At the mercy
Cat is out
Drop through the sky
Spit it up, spit it out

And now what you've all been waiting for
We give you he who suffers the truth

Swing the noose again
Pierce the apple skin
You bit more than you need
Oh, you're choking on a bad seed
Choking on a bad seed
Yeah

Nothing real, stand revealed
Bring it on, break the seal
Nothing much, the cat is out
Spit it up, spit it out
Spit it up, spit it out
Spit it out now

At the mercy

Swing the noose again
Pierce the apple skin
You bit more than you need
Choking on a seed

Swing the noose again
Pierce the apple skin
You bit more than you need
Oh, you're choking on a
Choking, choking, choking on a bad seed
Yeah

Off the viel, stand revealed
Bring it on, break the seal
Nothing much, the cat is out
Spit it up, spit it out
Spit it out, spit it out
Spit it out now
Yeah

Choking on a bad, bad, bad, bad, bad, bad seed








---------------


version 2 








tune all guitars down 1 1/2 steps ('E' string sounds C#)

low to high C#, F#, B, E, G#, c#coughing and drum intro

1)

c#--------------------------------------------------------------------
G#--------------------------------------------------------------------
E---------------------------------------------------------------------
B---2-0----------2-0---------5-2-0----------2-0---------2-2-2-2-------
F#------2-0----------2-0-----5-----2-0----------2-0-----2-2-2-2-------
C#----------3-0----------3-0-3---------3-0----------3-0-0-0-0-0-3~~3~~

intro riff

2)

B-----2-2-2-2-2-------------2-2-2-2-2-------------5-5-5-5-7--8-8
F#----2-2-2-2-2-------------2-2-2-2-2-------------5-5-5-5-7--8-8
C#--3p0-0-0-0-0-5p0-3h5-3p0-0-0-0-0-0-5p0-3h5-3p0-3-3-3-3-5--6-6
     pm........             .........             ..............

3)

B-----2-2-2-------2-2-2-------2-2-2
F#----2-2-2-------2-2-2-------2-2-2
C#--3p0-0-0-0h2h3-0-0-0-0h2h3-0-0-0
     pm....       .....       .....      

verse

"Come clean, fess up."

4a) James

B---7-5----------7-5----------10
F#------5-7----------7-5------10
C#----------8-5----------8-5--8-4b) Kirk

B---7-7-7-7-7-7-7-9
F#--7-7-7-7-7-7-7-9
C#--5-5-5-5-5-5-5-7

bridge

"Ladies and gentilmen"

5a) James

B---5-5-5-5-2----------------5-5-5-5-2----------------5-5-5-5-7------------
F#--5-5-5-5-2----------------5-5-5-5-2----------------5-5-5-5-7------------
C#--3-3-3-3-0-0h5p0-3h5-3p0--3-3-3-3-0-0h5p0-3h5-3p0--3-3-3-3-5-5p0-3h5-3p05b) Kirk

c#------------7~~~~~~~~~~--------------12~~~~~~~~~~-------------7~~~~~~----
G#--------------------------------------------------------------6----------
E--------------------------------------------------------------------------
B---5-5-5-5------------------5-5-5-5------------------5-5-5-5--------------
F#--5-5-5-5------------------5-5-5-5------------------5-5-5-5--------------
C#--3-3-3-3------------------3-3-3-3------------------3-3-3-3--------------

Chorus

"Swing the noose again."6)
B---2-2-2-2-5-5-5-5-7-7-7-7-8-8-8-8
F#--2-2-2-2-5-5-5-5-7-7-7-7-8-8-8-8
C#--0-0-0-0-3-3-3-3-5-5-5-5-6-6-6-6

"Choking on a bad seed" (about 2:00)







Yeah, yeah
Yeah, yeah
Oh yeah

Yeah
Yeah, yeah

Come clean
Fix up
Tell all
Spill guts

I'm the bad
Stand revealed
Show the card
Bring it on, break the seal

Ladies and gentleman
Step right up and see the man who bought the truth

Swing the noose again
Pierce the apple skin
You bit more than you need
Oh, you're choking on a bad seed
On a bad seed
Ah, choking

Yeah
Let it on
Load up
Confess
Care so

At the mercy
Cat is out
Drop through the sky
Spit it up, spit it out

And now what you've all been waiting for
We give you he who suffers the truth

Swing the noose again
Pierce the apple skin
You bit more than you need
Oh, you're choking on a bad seed
Choking on a bad seed
Yeah

Nothing real, stand revealed
Bring it on, break the seal
Nothing much, the cat is out
Spit it up, spit it out
Spit it up, spit it out
Spit it out now

At the mercy

Swing the noose again
Pierce the apple skin
You bit more than you need
Choking on a seed

Swing the noose again
Pierce the apple skin
You bit more than you need
Oh, you're choking on a
Choking, choking, choking on a bad seed
Yeah

Off the viel, stand revealed
Bring it on, break the seal
Nothing much, the cat is out
Spit it up, spit it out
Spit it out, spit it out
Spit it out now
Yeah

Choking on a bad, bad, bad, bad, bad, bad seed








---------------


version 3







tune all guitars down 1 1/2 steps ('E' string sounds C#)
low to high C#, F#, B, E, G#, c# 
coughing and drum intro 

 1) 

 c#--------------------------------------------------------------------
 G#-------------------------------------------------------------------- 
 E--------------------------------------------------------------------- 
 B---2-0----------2-0---------5-2-0----------2-0---------2-2-2-2------- 
 F#------2-0----------2-0-----5-----2-0----------2-0-----2-2-2-2------- 
 C#----------3-0----------3-0-3---------3-0----------3-0-0-0-0-0-3~~3~~ 

 Intro riff 

  
 2) 

 B-----2-2-2-2-2-------------2-2-2-2-2-------------5-5-5-5-7--8-8
 F#----2-2-2-2-2-------------2-2-2-2-2-------------5-5-5-5-7--8-8
 C#--3p0-0-0-0-0-5p0-3h5-3p0-0-0-0-0-0-5p0-3h5-3p0-3-3-3-3-5--6-6
      pm........             .........             .............. 

  
  

 3) 

 B-----2-2-2-------2-2-2-------2-2-2
 F#----2-2-2-------2-2-2-------2-2-2
 C#--3p0-0-0-0h2h3-0-0-0-0h2h3-0-0-0
      pm....       .....       .....
 Verse

 "Come clean, fess up."

  

 4a) James 

 B---7-5----------7-5----------10-
 F#------5-7----------7-5------10-
 C#----------8-5----------8-5--8--
 
 4b) Kirk 
 B---7-7-7-7-7-7-7-10 
 F#--7-7-7-7-7-7-7-10
 C#--5-5-5-5-5-5-5-8- 

 bridge 

 "Ladies and gentilmen" 

  
  

  
 5a) James 

 B---5-5-5-5-2----------------5-5-5-5-2----------------5-5-5-5-7------------ 
 F#--5-5-5-5-2----------------5-5-5-5-2----------------5-5-5-5-7------------ 
 C#--3-3-3-3-0-0h5p0-3h5-3p0--3-3-3-3-0-0h5p0-3h5-3p0--3-3-3-3-5-5p0-3h5-3p0 
 5b) Kirk 

 c#------------7~~~~~~~~~~--------------12~~~~~~~~~~-------------7~~~~~~---- 
 G#--------------------------------------------------------------8---------- 
 E-------------------------------------------------------------------------- 
 B---5-5-5-5------------------5-5-5-5------------------5-5-5-5-------------- 
 F#--5-5-5-5------------------5-5-5-5------------------5-5-5-5-------------- 
 C#--3-3-3-3------------------3-3-3-3------------------3-3-3-3--------------
 
 Chorus

 "Swing the noose again."

  
  

 6) 

 B---2-2-2-2-5-5-5-5-7-7-7-7-8-8-8-8
 F#--2-2-2-2-5-5-5-5-7-7-7-7-8-8-8-8
 C#--0-0-0-0-3-3-3-3-5-5-5-5-6-6-6-6
 "Choking on a bad seed" (about 2:00)










Yeah, yeah
Yeah, yeah
Oh yeah

Yeah
Yeah, yeah

Come clean
Fix up
Tell all
Spill guts

I'm the bad
Stand revealed
Show the card
Bring it on, break the seal

Ladies and gentleman
Step right up and see the man who bought the truth

Swing the noose again
Pierce the apple skin
You bit more than you need
Oh, you're choking on a bad seed
On a bad seed
Ah, choking

Yeah
Let it on
Load up
Confess
Care so

At the mercy
Cat is out
Drop through the sky
Spit it up, spit it out

And now what you've all been waiting for
We give you he who suffers the truth

Swing the noose again
Pierce the apple skin
You bit more than you need
Oh, you're choking on a bad seed
Choking on a bad seed
Yeah

Nothing real, stand revealed
Bring it on, break the seal
Nothing much, the cat is out
Spit it up, spit it out
Spit it up, spit it out
Spit it out now

At the mercy

Swing the noose again
Pierce the apple skin
You bit more than you need
Choking on a seed

Swing the noose again
Pierce the apple skin
You bit more than you need
Oh, you're choking on a
Choking, choking, choking on a bad seed
Yeah

Off the viel, stand revealed
Bring it on, break the seal
Nothing much, the cat is out
Spit it up, spit it out
Spit it out, spit it out
Spit it out now
Yeah

Choking on a bad, bad, bad, bad, bad, bad seed








---------------


version 4










E5
0 2 x x x x G5
3 5 x x x x  A5
5 7 x x x x C5
8 10 x x x x 
D5
10 12 x x x x Bb5
6 8 x x x x E5VII
x 7 9 9 x x 

Gtr I (C# F# B E G# C#) - 'James Hetfield - Rhythm w/dist'
Gtr II (C# F# B E G# C#) - 'Kirk Hammett - Rhythm w/dist'
Gtr III (C# F# B E G# C#) - 'James Hetfield - Rhythm w/dist and tremolo'
Gtr IV (C# F# B E G# C#) - 'Kirk Hammett - Lead w/dist'

Intro
  Half Time Feel Q=132
 4/4
  Gtr I
  Q    W          H        E  E Q
                              | |
                              x x

  Gtr II
  Q    W          Q  E E   H
|----|----------|------------------|
|----|----------|------0-----------|
|----|----------|------0-----------|
|----|----------|------0-----------|
|----|----------|--------/14\------|
|----|----------|--------/14\------|


    Gtrs I, II
                      ~~~~~~~~
    a E E E E E E E a E   +E  E E E E E Q
||----------------------|------------------|
||o---------------------|------------------|
||----------------------|------------------|
||----------------------|------------------|
||o-5s7-5-----------5s7-|-(7)-5---------5--|
||--------7-5-3-0-0-----|-------7-5-3-0-3--|
 |-Riff A

                    ~~~~~~~~
  a E E E E E E E a E   +E  E E E E a E Q
|---------------------|---------------------||
|---------------------|--------------------o||
|---------------------|---------------------||
|---------------------|-------------5s7-5---||
|-5s7-5-----------5s7-|-(7)-5-------5s7-5--o||
|-------7-5-3-0-0-----|-------7-5-3---------||
                                 end Riff A-|

 End Half Time Feel
  Gtr II
  E5
  E E E E E E E E   E E E E E   E Q
  | |   |   |   |     |   | |
  / /   /   /   /     /   / /

  Gtr I
                          PM
  E E E E E E E E   E E E E E   E E E
|-----------------|-------------------|
|-----------------|-------------------|
|-----------------|-------------------|
|-----------------|-------------------|
|-2-2---2---2---2-|---2---------------|
|-0-0---0---0---0-|---0---0-5b6-0-3-5-|


  Gtrs I, II
                          PM
  E E E E E E E E   E E E E E   E E E
|-----------------|-------------------|
|-----------------|-------------------|
|-----------------|-------------------|
|-----------------|-------------------|
|---2---2---2---2-|---2---------------|
|-3-0---0---0---0-|---0---0-5b6-0-3-5-|
|-Rhy Fig 1             end Rhy Fig 1-|


Rhy Fig 1 x2


  Gtr II
|-Rhy Fill 1A           end Rhy Fill 1A-|
  G5            A5
  E E E E E E E  E   +W
  | |   |   |    |    |
  / /   /   /    /    /

  Gtr I
                            ~~~~~~
  E E E E E E E  E   +E  Q  E +E  E E E
|------------------|--------------------||
|------------------|--------------------||
|------------------|--------------------||
|------------------|--------------------||
|-5-5---5---5------|-----7--------------||
|-3-3---3---3---/5-|-(5)----6-(6)-6-5-0-||
|-Rhy Fill 1             end Rhy Fill 1-|

   Verses 1 + 2
    Gtrs I, II
    E E E E E a E E E   E E E E E a E E E
||--------------------|-------------------|
||o-------------------|-------------------|
||--------------------|-------------------|
||------------5s7-5---|-----------5s7-5---|
||o---2---2---5s7-5-2-|---2---2---5s7-5-2-|
||--3-0---0---------0-|---0---0---------0-|
                      |-Rhy Fig 2       --|

w/Rhy Fig 2 x6
                                       ~
  E E E E E a E E E   E E E  E E   E   Q     E E E E E a E E E
|-------------------|----------------------|-------------------|
|-------------------|----------------------|-------------------|
|-------------------|----------------------|-------------------|
|-----------5s7-5---|----------5---7b9-5---|-----------5s7-5---|
|---2---2---5s7-5-2-|---2---/7-------------|---2---2---5s7-5-2-|
|---0---0---------0-|---0------------------|---0---0---------0-|


  E E E E E a E E E   E E E E E a E E E   E E E  E E   E a    +E  E
|-------------------|-------------------|---------------------------||
|-------------------|-------------------|---------------------------||
|-------------------|-------------------|---------------------------||
|-----------5s7-5---|-----------5s7-5---|----------5---7-5pb6r(5)---||
|---2---2---5s7-5-2-|---2---2---5s7-5-2-|---2---/7----------------7-||
|---0---0---------0-|---0---0---------0-|---0-----------------------||

 Half Time Feel
  Gtr II
    A5                                C5
    E E E E E E E   E    E  E E E E E Q
    | |   | | |     |       |   |   | |
    / /   / / /     /       /   /   / /

  Gtr I
                    ~~~~~~~~
  a E E E E E E E a E   +E  E E E E E Q
|---------------------|------------------|
|---------------------|------------------|
|---------------------|---------------5--|
|-5s7-5-----------5s7-|-(7)-5---------5--|
|-------7-5-3-0-0-----|-------7-5-3-0----|
|---------------------|------------------|
|-Riff B

    A5                                D5C5
    E E E E E E E   E    E  E E E E   E Q
    | |   | | |     |       |   |     | |
    / /   / / /     /       /   /     / /

                    ~~~~~~~~
  a E E E E E E E a E   +E  E E E E a E Q
|---------------------|--------------------|
|---------------------|--------------------|
|---------------------|-------------5s7-5--|
|-5s7-5-----------5s7-|-(7)-5-------5s7-5--|
|-------7-5-3-0-0-----|-------7-5-3--------|
|---------------------|--------------------|
                                end Riff B-|

                         Chorus - End Half Time
                       $
  Gtr II
              PM                                                PM
  E E E E E E E  E         +H.            +Q        E E E E E E E  E
|----------------------||-------------------------|---------------12-----|
|---------------12-----||-(12)-----------(12)\----|---------------15b17==|
|---------------14b16==||=(14)-----------(14)r\---|----------------------|
|----------------------||-------------------------|----------------------|
|-5-5---5---5----------||-------------------------|-5-5---5---5----------|
|-3-3---3---3-0--------||-------------------------|-3-3---3---3-0--------|
|-Rhy Fill 2A        --|
|
| Gtr I
|             PM                                                PM
| E E E E E E E  E         +Q   E E Q      E    E   E E E E E E E  E
|----------------------||-------------------------|----------------------|
|----------------------||-------------------------|----------------------|
|----------------------||-------------------------|----------------------|
|----------------------||-------------------------|----------------------|
|-5-5---5---5----2-----||--(2)--2-----------------|-5-5---5---5----2-----|
|-3-3---3---3-0--0-----||--(0)--0-0-5b6----3----5-|-3-3---3---3-0--0-----|
|-Rhy Fill 2         --|

                                         PM
   +H.                Q      E E E E E E E  E        +H.            +Q
|-(12)---------------------|----------------------|-------------------------|
|-(15)r--------------15\---|---------------15-----|-(15)-----------(15)\----|
|--------------------------|---------------14b16==|=(14)-----------(14)r\---|
|--------------------------|----------------------|-------------------------|
|--------------------------|-5-5---5---5----------|-------------------------|
|--------------------------|-3-3---3---3-0--------|-------------------------|
|
|                                        PM                ~~~~~~
|  +Q    E E E   S S  E  E   E E E E E E E  E        +Q.   E +E  E   E    E
|--------------------------|----------------------|-------------------------|
|--------------------------|----------------------|-------------------------|
|--------------------------|----------------------|-------------------------|
|--------------------------|----------------------|-------------------------|
|--(2)---2-----------------|-5-5---5---5----7-----|--(7)--------------------|
|--(0)---0-0-5b6-5-0--3--5-|-3-3---3---3-0--5-----|--(5)---6-(6)-6---5----0-|


  1.
  Rhy Fig 1 x3


 Gtr II
  G5            A5
  E E E E E E E  E   +W
  | |   |   |    |    |
  / /   /   /    /    /

 Gtr I
                            ~~~~~~
  E E E E E E E  E   +E  Q  E +E  E E E
|------------------|---------------------||
|------------------|--------------------o||
|------------------|---------------------||
|------------------|---------------------||
|-5-5---5---5------|-----7--------------o||
|-3-3---3---3---/5-|-(5)----6-(6)-6-5-0--||


  2.,D.S.
  Gtrs I, II
|-Rhy Fig 3
  G5      E5                G5                                 A5
   E       E E  E   E   E E  E     E   E E  E       E    E   E  E
   |       |    |       |    |         |    |            |      |
   /       /    /       /    /         /    /            /      /

  Gtr III
   E       Q    E  +E   Q    E    +E   Q    E      +E    Q.
|---------12-----------12---12-|-(12)-------------------12--------|
|--------------12-(12)---------|------12---12-----(12)------------|
|------------------------------|----------------------------------|
|------------------------------|----------------------------------|
|------------------------------|----------------------------------|
|------------------------------|----------------------------------|
||-Riff C                                              end Riff C-|
| Gtr IV (on D.S. only)
|               ~~~~~~~~~~~~~~~~~~~~~~
|  Q.           E  +H             +Q.       E      +E   +E   E  E
|------------------------------|----------------------------------|
|------------------------------|-----------14b15==(14)r(14)-------|
|-12b12.5----------------------|-----------14b16==(14)r(14)-------|
|--------------14-(14)---------|-(14)-----------------------12-14-|
|------------------------------|----------------------------------|
|------------------------------|----------------------------------|

w/Riff C x2                              end Rhy Fig 3-|
                        Bb5            A5      E5  G5E5
   E   E E  E   E   E E  E     E   E E  E   E   E  E E
       |    |       |    |         |    |       |  | |
       /    /       /    /         /    /       /  / /
            ~~~~~~~~~~~~~~~~~~~~~~
   Q.       E  +H             +W
|--------------------------|---------------------------|
|--------------------------|---------------------------|
|-12-----------------------|---------------------------|
|----------14-(14)---------|-(14)----------------------|
|--------------------------|---------------------------|
|--------------------------|---------------------------|


w/Rhy Fig 3
|------------------------|---------------------------|


                                                   To Coda
  E  Q    E  +E   Q    E    +E   Q    E  +E   Q    E
|---12-----------12---12-|-(12)--------------12------|
|--------12-(12)---------|------12---12-(12)------12-|
|------------------------|---------------------------|
|------------------------|---------------------------|
|------------------------|---------------------------|
|------------------------|---------------------------|


  G5   E5
    E   E E  E   E   E E  E     E   E E  E   E  E  Q
    |   |    |       |    |         |    |   |
    /   /    /       /    /         /    /   /

                            Gtr IV
                                                   ~~
    W                           H            q     Q
|---------------------------|-------------------------||
|---------------------------|-------------------------||
|---------------------------|--------------/19----12--||
|---------------------------|-------------------------||
|---------------------------|-------------------------||
|---------------------------|-------------------------||
|
| Gtr III
|  +E   Q    E  +E   Q    E    +E   Q    E  +E  E  Q
|------12-----------12------|------12-----------------||
|-(12)------12-(12)------12-|-(12)------12-(12)-------||
|---------------------------|-------------------------||
|---------------------------|-------------------------||
|---------------------------|-------------------------||
|---------------------------|-------------------------||
|-Riff C1                                 end Riff C1-|

 Guitar Solo
w/Riff A x2
  Gtr II
|-Rhy Fig 4
    E5              A5G5   E5                                           G5
     E     E  E     E   E  E E    E     E  E   E        E    E     E     Q
     |     |        |   |  |      |        |            |          |     |
     /     /        /   /  /      /        /            /          /     /

  Gtr IV
                 ~~~~~~~~~~
     S  S  E  S  E.    +Q    E    E    +Q     +E       +E   +E     S  S  E  E
|-----------------------------------|-----------------------------------------|
|--------------------------------12-|-(12)---(12)b13==(12)r(12)\--------------|
|--------------------------------12-|-(12)---(12)b14==(12)r(12)\--------12-14-|
|---14p12----12h14----(14)----------|----------------------------/12h14-------|
|---------14------------------------|-----------------------------------------|
|-----------------------------------|-----------------------------------------|

                                                                 end Rhy Fig 4-|
    E5            A5G5    E5                                       A5G5
     E     E   E  E   E    E     E    E    E    E  E  E       E    E   Q
     |     |      |   |    |          |         |     |            |   |
     /     /      /   /    /          /         /     /            /   /

               ~~~~~~~~~~~
     Q        +Q     +E    S  S  E    E    Q       E  E      +Q       +E   +E
|---------------------------------------|--------------------------------------|
|---------------------------------------|---------15-15-----(15)-----(15)-(15)-|
|---14b16====(14)---(14)r-------12---14-|-14b16------14b16==(14)-----(14)r(14)-|
|-------------------------12h14---------|--------------------------------------|
|---------------------------------------|--------------------------------------|
|---------------------------------------|--------------------------------------|


w/Rhy Fig 4
                                                                        |--3--|
     E  E  E  E      +E   +E   E    E        +E   +E   E  E  +E   E  E  S  S  S
|-----------------------------12----------|-----------12---------------12h15p12-|
|---------12-14b15==(14)r(14)-12---14b15==|=(14)r(14)-12-14-(14)-12-------------|
|---12----12-14b16==(14)r(14)------14b16==|=(14)r(14)----14-(14)-12-------------|
|------14---------------------------------|-------------------------14----------|
|-----------------------------------------|-------------------------------------|
|-----------------------------------------|-------------------------------------|


                                                                          ~~~~~~~~~~~~
     E  e  S  S  S  S S  S  S  S  E    E    E   Q        +E    S  S    S  S      +E   E
|------15-15p12----17---17-15p12------12-|--------------------12--------------------------|
|---15----------15---------------15------|-12--15b17====(15)r----15---12-15b17==(15)r-----|
|----------------------------------------|------------------------------------------------|
|----------------------------------------|------------------------------------------------|
|----------------------------------------|------------------------------------------------|
|----------------------------------------|------------------------------------------------|


w/Riff B
|-Rhy Fig 5
    A5
     E     E        E     E        E  E        E       E
     |     |              |        |  |                |
     /     /              /        /  /                /

                                                          ~~~
                                      |--3--|
     E     S  S     S  S  S     S  E  S  S  S  S  S    S  S
|---12----12-------12-12-------12-15-12h14p12----12---12-15-|
|---15b17----15b17-------15b17----------------15-12---12----|
|-----------------------------------------------------------|
|-----------------------------------------------------------|
|-----------------------------------------------------------|
|-----------------------------------------------------------|


                                   C5
    E   E        E     E      E  E Q
        |              |         | |
        /              /         / /

 ~~~~~~                   ~~~~~~~
        |--3--|
   +E   S  S  S  S  S  S  S  +Q    S S  E
|-(15)-12h14p12----12-12-------------x--------|
|---------------15-12-12-15-(15)-----x-12-----|
|--------------------------------------14b16==|
|---------------------------------------------|
|---------------------------------------------|
|---------------------------------------------|


    A5
      E       E     E     E        E     E     E          E
      |       |           |        |     |                |
      /       /           /        /     /                /

     +S    S  S  S  S  S  S     S  S  S  S  S  S     S    S  S
|---------12---------------------------------------------------|
|---(12)--12-------------------12-------------------12---15-14-|
|---(14)r----14p12----12-14b16----14p12----12-14b16------------|
|------------------14-------------------14---------------------|
|--------------------------------------------------------------|
|--------------------------------------------------------------|


                                  end Rhy Fig 5-|
                                      D5 C5
   E      E        E     E     E       E  Q
          |              |             |  |
          /              /             /  /

                                       ~~
          |--3--|
   S   S  S  S  S  S  S  S  S  S  S    E  Q
|----------------------------------------------||
|-12-----12h14p12----12-12---------------------||
|-----14----------14----12----12-14---12-------||
|--------------------------14------------14\---||
|----------------------------------------------||
|----------------------------------------------||


 Interlude - Half Time Feel
w/Rhy Fig 5 + Riff B
                ~~~~~~~~~~~~~~            ~
    E E E E E   Q     E   +E  E E E E   E Q
|-----------------------|--------------------|
|-----------------------|--------------------|
|-------5-7-7b9---------|-------5-7-7b9-7-5--|
|---7-7---------7-----7-|-(7)-7--------------|
|-----------------------|--------------------|
|-----------------------|--------------------|


                ~~~~~~~~~~~~~~              ~
    E E E E E   Q     E   +E  E E E E     E Q
|-----------------------|-----------------------|
|-----------------------|-----------------------|
|-------5-7-7b9---------|-------5-7-7b9---7-5---|
|---7-7---------7-----7-|-(7)-7-----------------|
|-----------------------|-----------------------|
|-----------------------|-----------------------|


  Gtr II
|-Rhy Fig 6
  A5                                  C5
  E E E E E   E E E    E  E E E E   E Q
  | |   | |   |   |       |   |     | |
  / /   / /   /   /       /   /     / /

  Gtrs I, IV
              ~~~~~~~~~~~~            ~
  E E E E E   Q   E   +E  E E E E   E Q
|-------------------|--------------------|
|-------------------|--------------------|
|-----5-7-7b9-------|-------5-7-7b9-7-5--|
|-7-7---------7---7-|-(7)-7--------------|
|-------------------|--------------------|
|-------------------|--------------------|
|-Riff D

                           end Rhy Fig 6-|
  A5                                C5
  E E E E E   E E E    E  E E E   E E Q
  | |   | |   |   |       |   |     | |
  / /   / /   /   /       /   /     / /

              ~~~~~~~~~~~~            ~
  E E E E E   Q   E   +E  E E E a E E Q
|-------------------|---------------------|
|-------------------|---------------8-8---|
|-----5-7-7b9-------|-------5-7-7s9-------|
|-7-7---------7---7-|-(7)-7---------------|
|-------------------|---------------------|
|-------------------|---------------------|
                               end Riff D-|

w/Rhy Fig 6 + Riff D
  Gtr IV
    E  E  E  E  E     E  +E     E    +E   E  E  E  E     E  E  +E
|---------------------------------|---------------------------------|
|---------------------------------|---------------------------------|
|--------17-19-19b21--------------|---------17-19-19b21-19-17-(17)\-|
|-/19-19-------------19-(19)\-/19-|-(19)-19-------------------------|
|---------------------------------|---------------------------------|
|---------------------------------|---------------------------------|



    E  E  E  E  E     E  +E     E    +E   E  E  E  a  E  E  E  +E
|---------------------------------|----------------------------------|
|---------------------------------|---------------------20-20-(20)\--|
|--------17-19-19b21--------------|---------17-19-19s21--------------|
|-/19-19-------------19-(19)\-/19-|-(19)-19--------------------------|
|---------------------------------|----------------------------------|
|---------------------------------|----------------------------------|


  E5VII
    E  E  E   E     E  E  E   E
    |  |  |   |     |  |  |   |
    /  /  /   /     /  /  /   /

    E  E  E  +E     E  E  E  +E
|---------------------------------|
|-----20-20-(20)\-----20-20-(20)\-|
|-/21-------------/21-------------|
|---------------------------------|
|---------------------------------|
|---------------------------------|
|
|   E  E  E  +E     E  E  E  +E
|---------------------------------|
|---------------------------------|
|------8--8--(8)\------8--8--(8)\-|
|--/9--------------/9-------------|
|---------------------------------|
|---------------------------------|


                                                D.S. al Coda
    E  E  E  E  Q     Q       W
    |  |  |  |  |
    /  /  /  /  /

                            Gtr II
    ~~~~~~~~~~~~~~~~~~~~                  PM
    E  E  E  E  E  E  E  E    E E E E E E E  E
|---------------------------|----------------------||
|-----20----20----20----20\-|---------------12-----||
|-/21----21----21----21-----|---------------14b16==||
|---------------------------|----------------------||
|---------------------------|-5-5---5---5----------||
|---------------------------|-3-3---3---3-0--------||
|
|   ~~~~~~~~~~~~~~~~~~~~                  PM
|   E  E  E  E  E  E  E  E    E E E E E E E  E
|---------------------------|----------------------||
|---------------------------|----------------------||
|------8-----8-----8-----8\-|----------------------||
|--/9-----9-----9-----9-----|----------------------||
|---------------------------|-5-5---5---5----2-----||
|---------------------------|-3-3---3---3-0--0-----||


  &
 Gtrs I, II
w/Riff C1
  G5   E5                                  G5   A5G5A5
    E   E E  E  +E   E E  E    +E   E E  E   E  E E E
    |   |    |   |   |    |     |   |    |   |  | | |
    /   /    /   /   /    /     /   /    /   /  / / /

  Gtr III
    E   Q    E  +E   Q    E    +E   Q    E  +E  E Q
|------12-----------12------|------12-----------------||
|-(12)------12-(12)------12-|-(12)------12-(12)-------||
|---------------------------|-------------------------||
|---------------------------|-------------------------||
|---------------------------|-------------------------||
|---------------------------|-------------------------||


 Outro
  Gtrs I, II
                          PM                                   PM
  E E E E E E E E   E E E E Q    E E   E E E E E E E E   E E E E E   E E E
|-----------------|------------------|-----------------|-------------------|
|-----------------|------------------|-----------------|-------------------|
|-----------------|------------------|-----------------|-------------------|
|-----------------|------------------|-----------------|-------------------|
|---2---2---2---2-|---2--------------|---2---2---2---2-|---2---------------|
|-3-0---0---0---0-|---0---0-5b6--3-5-|-3-0---0---0---0-|---0---0-5b6-0-3-5-|


 Freely
  E5
  Gtr I
  Q.    E H          W
  |     |
  /     x

  Gtr IV
  H..         +E     E   Q.    +H
|-----------------:-----[0]---([0])----*|
|-----------------:--------------------*|
|-7-----------(7)s:==4-----------------*|
|-----------------:--------------------*|
|-----------------:--------------------*|
|-----------------:--------------------*|
|
| Gtr II
| W                 +W
|-----------------:--------------------*|
|-----------------:--------------------*|
|-----------------:--------------------*|
|-----------------:--------------------*|
|-2---------------:-(2)----------------*|
|-0---------------:-(0)----------------*|








Yeah, yeah
Yeah, yeah
Oh yeah

Yeah
Yeah, yeah

Come clean
Fix up
Tell all
Spill guts

I'm the bad
Stand revealed
Show the card
Bring it on, break the seal

Ladies and gentleman
Step right up and see the man who bought the truth

Swing the noose again
Pierce the apple skin
You bit more than you need
Oh, you're choking on a bad seed
On a bad seed
Ah, choking

Yeah
Let it on
Load up
Confess
Care so

At the mercy
Cat is out
Drop through the sky
Spit it up, spit it out

And now what you've all been waiting for
We give you he who suffers the truth

Swing the noose again
Pierce the apple skin
You bit more than you need
Oh, you're choking on a bad seed
Choking on a bad seed
Yeah

Nothing real, stand revealed
Bring it on, break the seal
Nothing much, the cat is out
Spit it up, spit it out
Spit it up, spit it out
Spit it out now

At the mercy

Swing the noose again
Pierce the apple skin
You bit more than you need
Choking on a seed

Swing the noose again
Pierce the apple skin
You bit more than you need
Oh, you're choking on a
Choking, choking, choking on a bad seed
Yeah

Off the viel, stand revealed
Bring it on, break the seal
Nothing much, the cat is out
Spit it up, spit it out
Spit it out, spit it out
Spit it out now
Yeah

Choking on a bad, bad, bad, bad, bad, bad seed










-----------
Want More Free Lessons?

Browse through the Archive!

PROBLEM WITH THIS TAB? | VIEW FULL SCREEN | PRINT

KIDZ BOP 22 - Get 16 Kid Friendly Hits, available at MusicSpace.com!The Karaoke Channel Store - Med Rect