Lessons/Tabs are sorted alphabetically.

Tab Vault

PROBLEM WITH THIS TAB?   VIEW FULL SCREEN   PRINT

Bleeding Me

Metallica
Bleeding Me By Metallica





                        Bleeding Me

  






Tune Guitars down 1/2 step
Intro:
 Riff A
|--------------------|---------------------|-------------------|
|.-------------------|---------------------|-------------------|
|--------------------|---------------------|-------------------|
|----------5p-0------|---------------5-----|----------5p-0-----|
|.-----/7--------7~--|-----7------5-----7--|-----/7---------7--|
|---0----------------|--0----0--5----------|--0----------------|

|---------------------|--------------------|------------------------|
|---------------------|--------------------|------------------------|
|---------------------|--------------------|------------------------|
|---------------------|----------5p-0------|------------------5-----|
|---7\-------4--5\2---|------/7--------7~--|------7--------5-----7--|
|0-----0h-5-----4\3---|---0----------------|--0------0--5-----------|

|-------------------|----------------------|
|-------------------|---------------------.|
|-------------------|----------------------|
|---------5p-0------|----------------------|
|------/7-------5~--|------5-------5------.|
|--0----------------|--3-----3\-2-----2~---|

 Rhy Fig 1 (w/ Riff A)
 Slowly, let ring
|--0-----0-----|--0-----0-----|--0-----0-----|--0-----0-----|
|--8-----8-----|--8-----8--7--|--8-----8-----|--8-----8-----|
|--9-----9-----|--9-----9-----|--9-----9-----|--9-----9--7--|
|-----9-----9--|-----9--------|-----9-----9--|-----9--------|
|--------------|--------------|--------------|--------------|
|--------------|--------------|--------------|--------------|

                                               end Rhy Fig 1
|--0-----0-----|--0-----0-----|--0-----0-----|--0-----0-----|
|--8-----8-----|--8-----8--7--|--8-----8-----|--8-----8-----|
|--9-----9-----|--9-----9-----|--9-----9-----|--9-----9--7--|
|-----9-----9--|-----9--------|-----9-----9--|-----9-----7--|
|--------------|--------------|--------------|--------------|
|--------------|--------------|--------------|--------------|

|-----------------------------12--------------------------------------7--|
|.----------------------------12----------------------------------8---7-.|
|-------------------------12-----------------------------------9------9--|
|---------------------14-------------------------------------------------|
|.----------------------------------------------------------------------.|
|------------------------------------------------------------------------|
I'm Diggin' My Way.........              I'm Diggin My Way to something...

|--------------------------------------------12---|
|.-------------------------------------------12--.|
|----------------------------------------12-------|
|------------------------------------14-----------|
|.-----------------------------------------------.|
|-------------------------------------------------|
I'm Diggin My Way to Something Better....
Pre-Chorus:Guitar1
|-----------Full--------------------------------------------------------|
|-------------^----------------------------Full----Full-----------------|
|------------12-----------7--------------7--^--------^---p--------------|
|--------12-----------/9-----7--------5-----7--------7--7-5------h------|
|----14---------------------------/7-------------------------7--5-7-----|
|-----------------------------------------------------------------------|
Pre-chorus:Guitar2                  Stop here on repeat and play 2nd part    
|-----------------------------------------------------------------------|
|.----------------------------------8-----------------------8-----------|
|---------------------------7--7----7---7-----------7--7----7---7-------|
|--2--2--x--2---2----x--x---7--7-x--7---7----x--x---7--7-x--7---7--x--x-|
|.-2--2--x--2---2----x--x---5--5-x--5---5----x--x---5--5-x--5---5--x--x-|
|--0--0--x--0---0----x--x--------x-----------x--x--------x---------x--x-|
Skip this 2nd time|     (2nd part)Play seconed time:
|-----------------------|-----------------------------|
|----------------------.|-----------------------------|
|--2--2--x--2---2-------|--2--2-----2-----------------|
|--2--2--x--2---2-----5.|--2--2--x--2--2--------------|
|--0--0--x--0---0---7---|--0--0--x--0--2-----~~~~~~~--|
|-----------------------|--------x-----0---0--3-------|
Chorus:
|--------------------------------------------------------------------------|
|.------------------------------------------------------------------------.|
|-----------------------h-------------------h------------------------------|
|--/9---9---9\---x--5--5-7---7---7\--x--5--5-7---7--7\--x------h---------x-|
|.-/7---7---7\---x--5----7---5---5\--x--5----5---5--5\--x--5--5-7--7--7\-x.|
|----------------x-------------------x------------------x--5----5--5--5\-x-|
Every time except 1st,Play this after each chorus line:
|------------|
|------------|
|------------|
|------------|
|-----~~~~---|
|--0--3------|
Seconed Main Riff:
|----------------------------------------------------------|
|----------------------------------------------------------|
|---h--------------------------------------------p----h----|
|--7-9--------9----------9----------9-----h----10-9--7-9---|
|--7----------7----------7----------7----7-10----------7---|
|--0---0--0---0---0--0---0---0--0---0--0-------------------|
      pm....    pm....      pm...
*Here's That Kick Ass Solo!:
|--^------^----^----^----^------^--^-~~~~~~~~|----------------------------------|
|--5------8---10---12---15-----15-15---------|----------------------------------|
|--7-----10---12---14---17-----17-17---------|-------------12-12--------12------|
|-Full--Full-Full-Full-Up&Down---------------|-------------12-12------------12--|
|--------------------------------------------|-12-12-14-14--------14-~----------|
|--------------------------------------------|----------------------------------|
*Only bend bottoms Notes Full                  pm.........|

|-------------------------------|---------------------------|
|-------------------------------|---------------------------|
|----h----------14--12----------|--x--x-x-------------------|
|-(12)14--14-~----------14--12--|--x--x-x-12--14-~---14-12--|
|-------------------------------|---------------------------|
|-------------------------------|---------------------------|

|-----------------------1/4---|---------------------------|----------------------|
|------------------------^----|-------1/2-----------------|----------------------|
|-----------------------12----|-x--x---^---------12-------|----------------14----|
|-(12)--14--14--14--12--12----|-x--x--12---14-~--14--12-~-|-(12)--14--14-~-14----|
|-----------------------------|---------------------------|-------------------12-|
|--------------------------12-|---------------------------|----------------------|

|---------------^-----------------^--|-------------------------------|
|--------------14-------------x--14--|--12---------------------------|
|-12-------x---14---12--------x--14--|--12-------------h-------------|
|----14-~--x---1/2-----14-~------1/2-|-----14--12----12-14-~--12-----|
|------------------------------------|------------14-------------14--|
|------------------------------------|-------------------------------|
 
 
|-15--12----12---------------------------Full------|
|--------15----15--12----12----------------^-------|
|---------------------14----14--12----12--14-~-~---|
|----------------------------------14---Hold Bend--|
|--------------------------------------------------|
|--------------------------------------------------|
 
|--------------------------------------------------------|
|---------------------p----------------------------------|
|-14-(Bring-Down-Here)-14----12--14----------12----------|
|-------------------------14----------14--12-----14-~-~--|
|--------------------------------------------------------|
|--------------------------------------------------------|
 
 
     h  p
|--12-15-12---12--^----12----------^--12---p----|
|----------15----15-~-----15--12--15-----15-12--|
|---------------Full-------------Full-----------|
|-----------------------------------------------|
|-----------------------------------------------|
|-----------------------------------------------|

|---^--12---p-------------p--------------p--------------p----|
|--15-----15-12--12--12-15-12--12--12--15-12--12--12--15-12--|
|------------------------------------------------------------|
|------------------------------------------------------------|
|------------------------------------------------------------|
|------------------------------------------------------------|

|----------p--------h--p--------h--p-----p------h--p--------h--p----|
|-----12-15-12----12-15-12----12-15-12-15-12--12-15-12----12-15-12--|
|--14----------14----------14---------------14---------14-----------|
|-------------------------------------------------------------------|
|-------------------------------------------------------------------|
|-------------------------------------------------------------------|

                                                   Tremolo Pick this part
|------h--p--------h--p--------p-----^------^--|----------15------------|
|----12-15-12-12-12-15-12----15-12--15-----15--|--12--14--15------------|
|-14----------------------14-------Full---Full-|--12--14--15--14--------|
|----------------------------------------------|------------------------|
|----------------------------------------------|------------------------|
|----------------------------------------------|------------------------|

|---------------------------|----^-----------------------------|
|--12---14--14--15--14--12--|---15-~---15--12------------------|
|--12---14--14--15--14--12--|--Full-----------14--12-----------|
|---------------------------|------------------------14--12-~--|
|---------------------------|----------------------------------|
|---------------------------|----------------------------------|
 
 
|---^-------------------------|---^-----^------^---|-----^--------------^--|
|--15--15--12-----------------|--15----15-----15---|-0--15---0--12-----15--|
|-Full--------14--12----------|-Full---Full---Full-|-0-Full--0--12----Full-|
|--------------------14--12-~-|--------------------|---------------14------|
|-----------------------------|--------------------|-----------------------|
|-----------------------------|--------------------|-----------------------|
 
 
Half Time Feel:
|-------------------------|----------------------------------|
|-------------------------|----------------------------------|
|---h----------12--12/14--|--(14)--12--12--12/14----12--11---|
|--7-9--9--9--------------|----------------------------------|
|----7--7--7---10--10/12--|--(12)--10--10--10/12----10--9----|
|-------------------------|----------------------------------|

|--------------------^--------------|-------------------------------|
|---------------14--14------p-------|------^--15--12--^-------------|
|-(11)\-----12--14--14----14-12-----|-12--14---------14----12-------|
|-------/14--------1/2----------14--|----Full------Up&Down----14-~--|
|-(9)\------------------------------|-------------------------------|
|-----------------------------------|-------------------------------|

|-------------------------|---------------------------------|
|-------------------------|---------------------------------|
|--------9---9--12-12/14--|--(14)--12--12/14----12--11-~-~--|
|-(14)\-------------------|---------------------------------|
|--------7---7--10-10/12--|--(12)--10--10/12----10---9-~-~--|
|-------------------------|---------------------------------|

|-----------------------------|----------^---------------------|---------------|
|-----------------------------|-12--14--14-----------------^---|-12------------|
|--/12--12/14--14/16----------|-12--14--14----14--12------14---|-12--(12)\-----|
|---------------------12--14--|---------Full---------14--Full--|---------------|
|--/10--10/12--12/14----------|--------------------------------|---------------|
|-----------------------------|--------------------------------|---------------|










I'm diggin' my way
I'm diggin' my way to somethin'
I'm diggin' my way to somethin' better

I'm pushin' to stay
I'm pushin' to stay with something
I'm pushin' to stay with something better

I'm sowin' the seeds
I'm sowin' the seeds I've taken
I'm sowin' the seeds I take for granted

This thorn in my side
This thorn in my side is from the tree
This thorn in my side is from the tree I've planted
It tears me and I bleed
And I feel

Caught under the wheels roll
I take the leech
I'm bleeding me
Can't stop to save my soul
I take the leash that's leading me
I'm bleeding me
Ooh, I can't take it
Caught under wheels roll
Oh, the bleeding of me
Of me
The bleeding of me

Caught under wheels roll
I take the leech
I'm bleeding me
Can't stop to save my soul
I take the leash that's leading me
I'm bleeding me
Ooh, I can't take it
Caught under wheels roll
Oh, the bleeding of me
Oh, the bleeding of me

I am the beast that feeds the beast
I am the blood
I am release
Come make me pure
Bleed me a cure
I'm caught, I'm caught, I'm caught under

Caught under wheels roll
I take that leech
I'm bleeding me
Can't stop to save my soul
I take the leash that's leading me
I'm bleeding me
Oh, I can't take it
I can't take it
I can't take it
Oh, the bleeding of me

I'm diggin' my way
I'm diggin' my way to somethin'
I'm diggin' my way to something better

I'm pushin' to stay
I'm pushin' to stay with somethin'
I'm pushin' to stay with something better
With something better









---------------


version 2 








Esus4
x 7 7 9 x x

E5
x 7 9 9 x x

Dsus4
x 5 5 7 x x

D5
x 5 7 7 x x

B5
7 9 9 x x x

C5
8 10 10 x x x

A5
5 7 7 x x x

Em
0 2 2 0 0 0

Gtr I (Eb Ab Db Gb Bb Eb) - 'James Hetfield - Rhythm clean w/phaser'
Gtr II (Eb Ab Db Gb Bb Eb) - 'Kirk Hammett - Rhythm clean elec'
Gtr III (Eb Ab Db Gb Bb Eb) - 'Kirk Hammett - Lead w/dist'
Gtr IV (Eb Ab Db Gb Bb Eb) - 'James Hetfield - Gtr I w/dist'
Gtr V (Eb Ab Db Gb Bb Eb) - 'Kirk Hammett - Gtr II w/dist'
Gtr VI (Eb Ab Db Gb Bb Eb) - 'Kirk Hammett - Lead clean w/slide'

Intro
    Q=116
   4/4
    Gtr I
               ~                                  ~                    ~
    Q   Q  E E Q     Q   E E E E E E   Q   Q  E E Q     Q   E  E E E a Q
||----------------|------------------|---------------|--------------------|
||o---------------|------------------|---------------|--------------------|
||----------------|------------------|---------------|--------------------|
||---------5p0----|--------------5---|--------5p0----|--------------------|
||o----/7------7--|-(7)--7-----5---7-|----/7------7--|-(7)--7\-----4-4s2--|
||--0-------------|--0-----0-5-------|-0-------------|--0------0h5---5s3--|
 |-Riff A

             ~                                  ~               ~
  Q   Q  E E Q     Q   E E E E E E   Q   Q  E E Q    Q  E E E E Q
|---------------|------------------|---------------|----------------||
|---------------|------------------|---------------|---------------o||
|---------------|------------------|---------------|----------------||
|--------5p0----|--------------5---|--------5p0----|----------------||
|----/7------7--|-(7)--7-----5---7-|----/7------5--|----5-----5----o||
|-0-------------|--0-----0-5-------|-0-------------|-3----3s2---2---||
                                                         end Riff A-|

w/Riff A (1st 4 bars)
  Gtr III (on repeat only) 
    E
    W               +W                 +W               +W
    |                |                  |                |
    o                /                  /                /

    Gtr II
    Q   Q  Q   Q     Q   Q   Q   Q      Q   Q  Q   Q     Q   Q    Q     Q
||--0------0------|--0-------0-------|--0------0------|--0--------0--------|
||o-8------8------|--8-------8---7---|--8------8------|--8--------8-----7--|
||--9------9------|--9-------9-------|--9------9------|--9--------9--------|
||------9------9--|------9-----------|------9------9--|------9-------------|
||o---------------|------------------|----------------|--------------------|
||----------------|------------------|----------------|--------------------|
 |-Rhy Fig 1

  Q   Q  Q   Q     Q   Q   Q   Q     Q   Q  Q         Q        Q  Q   Q   Q
|-0------0------|--0-------0-------|-0------0----------------|-0------0------||
|-8------8------|--8-------8---7---|-8------8----------------|-8------8------||
|-9------9------|--9-------9-------|-9------9----------------|-9------9---7--||
|-----9------9--|------9-----------|-----9------------9------|----9-------7--||
|---------------|------------------|-------------------------|---------------||
|---------------|------------------|-------------------------|---------------||
|                                                              end Rhy Fig 1-|
|            ~                                                            ~
| Q   Q  E E Q     Q   E E E E E E   Q   Q  E E a    +S  +E.   Q  E E E E Q
|---------------|------------------|-------------------------|---------------||
|---------------|------------------|-------------------------|---------------||
|---------------|------------------|-------------------------|---------------||
|--------5p0----|--------------5---|--------5-7-7b9==(7)r(7)-|---------------||
|----/7------7--|-(7)--7-----5---7-|----/7-------------------|----5-----5----||
|-0-------------|--0-----0-5-------|-0-----------------------|-3----3s2---2--||


 Verses
w/Riff A (1st 6 bars)
  $$
  Q   H.            Q   Q   Q     Q
|-0--------------|--------------<12>---|
|-8--------------|----------8---<12>---|
|-9--------------|------9--------------|
|-----9----------|---------------------|
|----------------|---------------------|
|----------------|---------------------|
                 |-Rhy FIg 2

    +W                   +H         Q     Q
|-(<12>)-------------|-(<12>)----------------|
|-(<12>)-------------|-(<12>)-------------8--|
|--------------------|--------------9--------|
|--------------------|-----------------------|
|--------------------|-----------------------|
|--------------------|-----------------------|


  W               +Q   Q   Q     Q
|-7-------------|-(7)----------<12>---|
|-7-------------|-(7)------8---<12>---|
|-9-------------|-(9)--9--------------|
|---------------|---------------------|
|---------------|---------------------|
|---------------|---------------------|

    +W                   +W
|-(<12>)-------------|-(<12>)-----------------|
|-(<12>)-------------|-(<12>)-----------------|
|--------------------|------------------------|
|--------------------|------------------------|
|--------------------|------------------------|
|--------------------|------------------------|
|                               end Rhy Fig 2-|
|                 ~
|    Q     Q  E E Q       E   E E E E  E a Q
|--------------------|------------------------|
|--------------------|------------------------|
|--------------------|----x---7-7s9-9s12-7s9--|
|-------------5p0----|------------------------|
|---------/7------5--|----x---5-5s7-7s10-5s7--|
|----0---------------|------------------------|


w/Riff A
  W                Q   Q   Q     Q
|---------------|--------------<12>---|
|---------------|----------8---<12>---|
|---------------|------9--------------|
|---------------|---------------------|
|---------------|---------------------|
|---------------|---------------------|


    +W                   +Q    Q    Q     Q
|-(<12>)-------------|-(<12>)----------------|
|-(<12>)-------------|-(<12>)-------------8--|
|--------------------|--------------9--------|
|--------------------|---------9-------------|
|--------------------|-----------------------|
|--------------------|-----------------------|


  W               +Q   Q   Q     Q
|-7-------------|-(7)----------<12>---|
|-7-------------|-(7)------8---<12>---|
|-9-------------|-(9)--9--------------|
|---------------|---------------------|
|---------------|---------------------|
|---------------|---------------------|


         To Dbl. Coda
                                 Gtr III
    +W                   +H         E   E  E  a      +E
|-(<12>)-------------|-(<12>)-----------------------------||
|-(<12>)-------------|-(<12>)-----------------------------||
|--------------------|-----------------------12b14==(12)r=||
|--------------------|-------------/x\----12--------------||
|--------------------|-----------------14-----------------||
|--------------------|------------------------------------||


 Pre-Chorus
  Gtr IV
|-Rhy Fig 3
  Esus4E5                         DsusD5
    E  E E E   Q     E       E     E  E E E Q     E E
    |  | | |   |     |       |     |  | | | |     | |
    /  / x /   /     /       x     /  / x / /     / x

  Gtr III
    ~~~~~~~~~~~~~~~
   +H         +E   E E a    +E    +H        E   E E E
|-------------------------------|---------------------|
|-------------------------------|---------------------|
|-(12)-------(12)\--------------|-------------------7-|
|--------------------5-7b9==(7)r|=(7)-------------5---|
|------------------7------------|-----------7\-/7-----|
|-------------------------------|---------------------|


       DsusD5                            EsE54           B         D
        E   E  E E Q           E   E     E E E E  Q       E          E
        |   |  | | |           |   |     | | | |  |       |          |
        /   /  x / /           x   x     / / x /  /       o          o

        ~~~~~~~                          ~~~~~~~~~~~~
  a    +E  +Q.     E a    +E   S S E   a H       +E    E  E  a      +E
|------------------------------------|-----------------------------------|
|------------------------------------|-----------------------------------|
|------------------------------------|----------------------12b14==(12)r=|
|-7b9==(7)r(7)-----5-7b9==(7)r-7-5---|-------------------12--------------|
|----------------------------------7-|-5h7-------(7)-/14-----------------|
|------------------------------------|-----------------------------------|


  Esus4E5            E            DsusD5
    E  E E E   Q     Q             E  E E E Q     E E
    |  | | |   |     |             |  | | | |     | |
    /  / x /   /     o             /  / x / /     / x

    ~~~~~~~~~~~~~~~
   +H         +E   E E a    +E    +H        E   E E E
|-------------------------------|---------------------|
|-------------------------------|---------------------|
|-(12)-------(12)\--------------|-------------------7-|
|--------------------5-7b9==(7)r|=(7)-------------5---|
|------------------7------------|-----------7\-/7-----|
|-------------------------------|---------------------|

                                           end Rhy Fig 3-|
       DsusD5                            A5        E G
        E   E  E E Q           E   E     E E E E E E Q
        |   |  | | |           |   |     | | | | | | |
        /   /  x / /           x   x     / / x / / o o

        ~~~~~~~                          ~
  a    +E  +Q.     E a    +E   S S E   a W
|------------------------------------|--------------------||
|------------------------------------|-------------------o||
|------------------------------------|--------------------||
|-7b9==(7)r(7)-----5-7b9==(7)r-7-5---|--------------------||
|----------------------------------7-|-5h7---------------o||
|------------------------------------|--------------------||


 Chorus
  $
  Gtrs IV, V
   Q  Q  Q   E E   a Q  Q  Q   E E   a Q  Q  Q   E E   a Q  Q  Q   E E
|----------------|-----------------|-----------------|------------------|
|----------------|-----------------|-----------------|------------------|
|----------------|-----------------|-----------------|------------------|
|-/9--9--9\--x-5-|-5h7--7--7\--x-5-|-5h7--7--7\--x-5-|-------------x-x--|
|-/7--7--7\--x-5-|---5--5--5\--x-5-|---5--5--5\--x-5-|-5h7--7--7\--x-x--|
|------------x---|-------------x---|-------------x---|---5--5--5\--x-x--|
|-Rhy Fig 4                                               end Rhy Fig 4-|

                                                                    ~
   Q  Q  Q   E E   a Q  Q  Q   E E   a Q  Q  Q   E E   a Q  Q  E  E Q
|----------------|-----------------|-----------------|------------------|
|----------------|-----------------|-----------------|------------------|
|----------------|-----------------|-----------------|------------------|
|-/9--9--9\--x-5-|-5h7--7--7\--x-5-|-5h7--7--7\--x-5-|------------------|
|-/7--7--7\--x-5-|---5--5--5\--x-5-|---5--5--5\--x-5-|-5h7--7--7\-------|
|------------x---|-------------x---|-------------x---|---5--5--5\-0-3---|
|-Rhy Fig 4A                                             end Rhy Fig 4A-|

w/Rhy Fig 4A
  Gtr IV
   Q  Q  E  a     +E  +E  E   a Q  Q  Q   E E
|---------------------------|-----------------|
|---------------------------|-----------------|
|---------------------------|-----------------|
|-/9--9--9--9b10==(9)r(9)p7-|-5h7--7--7\--x-5-|
|-/7--7--7------------------|---5--5--5\--x-5-|
|---------------------------|-------------x---|
|-Rhy Fig 4B


                                 ~
  a Q  Q  Q   E E   a Q  Q  E  E Q
|-----------------|-------------------|
|-----------------|-------------------|
|-----------------|-------------------|
|-5h7--7--7\--x-5-|-------------------|
|---5--5--5\--x-5-|-5h7--7--7\--------|
|-------------x---|---5--5--5\-0-3----|
                       end Rhy Fig 4B-|


w/Rhy Fig 4A (1st 2 bars)
                                       ~~
   Q  Q  E  a     +E  +E  E     Q  E E Q   E E
|---------------------------|------------------|
|---------------------------|------------------|
|---------------------------|------------------|
|-/9--9--9--9b10==(9)r(9)s7-|---7--7s9s7---x-5-|
|-/7--7--7------------------|---5----------x-5-|
|---------------------------|--------------x---|


           To Coda
                  Gtr III
  a Q  Q  Q   E E     H     E   E  E  E
|-----------------|---------------------|
|-----------------|------------------12-|
|-----------------|---------------12-12-|
|-5h7--7--7\--x-5-|------------14-------|
|---5--5--5\--x-5-|---------7-----------|
|-------------x---|---------------------|
|
|                 Gtrs IV, V
|                                  ~~
| a Q  Q  Q   E E   a Q  Q  E   E  Q
|-----------------|---------------------|
|-----------------|---------------------|
|-----------------|---------------------|
|-5h7--7--7\--x-5-|---------------------|
|---5--5--5\--x-5-|-5h7--7--7\----------|
|-------------x---|---5--5--5\--0--3----|


w/Rhy Fig 3
  Gtr III
                               ~~~~~~~~
   +Q     +E       +E   E  E E E   +H        E   E E E
|--------------------------------|---------------------|
|-(12)---------------------------|---------------------|
|-(12)---(12)b14==(12)r------7---|-------------------7-|
|-------------------------/9---7-|-(7)-------------5---|
|--------------------------------|-----------7\-/7-----|
|--------------------------------|---------------------|


            ~~~                            ~
  a    +E  +Q.      E  a    +E   S S E   a H       E   E  E  E
|--------------------------------------|-----------------------|
|--------------------------------------|-----------------12-12-|
|--------------------------------------|-----------------12-12-|
|-7b9==(7)r(7)-----[5]-7b9==(7)r-7p5---|-----------------------|
|------------------------------------7-|-5h7---------/14-------|
|--------------------------------------|-----------0-----------|


                               ~~~~~~~~
   +Q     +E       +E   E  E E E   +H        E   E E E
|--------------------------------|---------------------|
|-(12)---------------------------|---------------------|
|-(12)---(12)b14==(12)r------7---|-------------------7-|
|-------------------------/9---7-|-(7)-------------5---|
|--------------------------------|-----------7\-/7-----|
|--------------------------------|---------------------|


                                                  Gtr VI
            ~~~                            ~~      ~~~
  a    +E  +Q.      E  a    +E   S S E   H         H
|--------------------------------------|--------------------||
|--------------------------------------|--------------------||
|--------------------------------------|-----------4s=======||
|-7b9==(7)r(7)-----[5]-7b9==(7)r-7p5---|--------------------||
|------------------------------------7-|-5h7------(7)-------||
|--------------------------------------|--------------------||
                                         E Q.     +H


 Interlude
w/Riff A x2            |-w/Rhy Fig 2
  Gtr VI
  Q  a  Q   +E   E  Q     H        E  E   Q
|----------------------|-----------------------|
|----------------------|-----------------------|
|-9--9s12--(12)s11s12s=|==9-------12s11s=12s===|
|----------------------|-----------------------|
|----------------------|-----------------------|
|----------------------|-----------------------|


     H         E  E  Q       H          Q      Q
|-----------------------|----------------------------|
|-----------------------|----------------------------|
|----9--------12s11s12s=|===14---------11s====12s====|
|-----------------------|----------------------------|
|-----------------------|----------------------------|
|-----------------------|----------------------------|


  H       E  E  Q     H        E  E   Q
|------------------|-----------------------|
|------------------|-----------------------|
|-9------12s11s12s=|==9-------12s11s=12s===|
|------------------|-----------------------|
|------------------|-----------------------|
|------------------|-----------------------|


     H         E  E  Q       Q     +Q     H
|-----------------------|-----------------7s=====|
|-----------------------|------------------------|
|----9--------12s11s12s=|===14----(14)\----------|
|-----------------------|------------------------|
|-----------------------|------------------------|
|-----------------------|------------------------|


w/Rhy FIg 1
   H       E  E  Q     H        E  E  Q
|-12------15s14s15s=|=12-------15s14s15s==|
|-------------------|---------------------|
|-------------------|---------------------|
|-------------------|---------------------|
|-------------------|---------------------|
|-------------------|---------------------|


   H       E  E  Q     H         Q      Q
|-12------15s14s15s=|=17--------14s====15s==|
|-------------------|-----------------------|
|-------------------|-----------------------|
|-------------------|-----------------------|
|-------------------|-----------------------|
|-------------------|-----------------------|


   H       E  E  Q     H        E  E  Q
|-12------15s14s15s=|=12-------15s14s15s==|
|-------------------|---------------------|
|-------------------|---------------------|
|-------------------|---------------------|
|-------------------|---------------------|
|-------------------|---------------------|

                         D.S. al Coda
   H       E  E  Q     H       H
|-12------15s14s15s=|=17------19------||
|-------------------|-----------------||
|-------------------|-----------------||
|-------------------|-----------------||
|-------------------|-----------------||
|-------------------|-----------------||


  &
  Gtrs IV, V
              ~
  a Q  Q  E E Q    W          +W
|----------------|----------|--------|
|----------------|----------|--------|
|----------------|----------|--------|
|----------------|----------|--------|
|-5h7--7--7------|----------|--------|
|---5--5--5-0-3--|-0--------|-(0)----|


                          Gtr IV
                                 PM|   PM|     PM|   PM
  +W           +W            E E E E E E E E   E E E E E  E  E E
|------------|------------||-----------------|-------------------||
|------------|------------||-----------------|-------------------||
|------------|------------||-----------------|-------------------||
|------------|------------||-7h9-----9-----9-|-----9--------10p9-||
|------------|------------||-7-------7-----7-|-----7---7h10------||
|-(0)--------|-(0)--------||-0---0-0-0-0-0-0-|-0-0-0-0-----------||
                           |-Rhy Fig 5             end Rhy Fig 5-|

    Gtrs IV, V
      ~~       PM|     PM|   PM
    a Q.   E E E E E   E E E E E  E  E E  7x
||-------------------|--------------------||
||o------------------|-------------------o||
||-------------------|--------------------||
||-----------9-----9-|-----9--------10p9--||
||o-5h7------7-----7-|-----7---7h10------o||
||----5----0-0-0-0-0-|-0-0-0-0------------||
 |-Rhy Fig 5A              end Rhy Fig 5A-|

     Bridge
     Rhy Fig 5A x4

w/Rhy Fig 4A
  Gtr V
   Q  Q  Q   E E   a Q  Q  Q   E E
|----------------|-----------------|
|----------------|-----------------|
|----------------|-----------------|
|-/9--9--9\--x-5-|-5h7--7--7\--x-5-|
|-/7--7--7\--x-5-|---5--5--5\--x-5-|
|------------x---|-------------x---|


  a Q  Q  Q   E E     E E E E    +E  +E  S E.
|-----------------|-----------------------------|
|-----------------|---------7b8==(7)r(7)--------|
|-----------------|---5---5-7b9==(7)r(7)-5------|
|-5h7--7--7\--x-5-|-----7------------------7----|
|---5--5--5\--x-5-|-----------------------------|
|-------------x---|-----------------------------|


                     |-3-| |-3-| |--3---|
   Q  Q  Q   E E   a E E E E E E Q  Q   Q
|----------------|--------------------------|
|----------------|--------------------------|
|----------------|--------------------------|
|-/9--9--9\--x-5-|-5h7-7-7-7-7-7-7--x---x---|
|-/7--7--7\--x-5-|---5-5-5-5-5-5-5--x---x---|
|------------x---|------------------x---x---|

                                                     ~
  a Q  Q  Q   E a     E      +Q    a     Q    S  S E Q
|------------------------|------------------------------|
|---------------------8--|---(8)---------8--------------|
|-------------5-7b9==(7)-|---(7)r--7b9==(7)r--7p=5------|
|-5h7--7--7--------------|-------------------------7-7--|
|---5--5-----------------|------------------------------|
|------------------------|------------------------------|

w/Rhy Fig 4B
   Q  Q  E  a     +E  +E  E   a Q  Q  Q   E E
|---------------------------|-----------------|
|---------------------------|-----------------|
|---------------------------|-----------------|
|-/9--9--9--9b10==(9)r(9)p7-|-5h7--7--7\--x-5-|
|-/7--7--7------------------|---5--5--5\--x-5-|
|---------------------------|-------------x---|

                                 ~
  a Q  Q  Q   E E   a Q  Q  E  E Q
|-----------------|-------------------|
|-----------------|-------------------|
|-----------------|-------------------|
|-5h7--7--7\--x-5-|-------------------|
|---5--5--5\--x-5-|-5h7--7--7\--------|
|-------------x---|---5--5--5\-0-3----|

w/Rhy Fig 4A
        ~~~~                                  ~~~~~                      ~~~~~
  a     H.           a       Q        a       H.          Q      a       H.          Q
|----------------------------------|--------------------------|--------------------------|
|-------5--------------------8-----|---------10---------------|---------12---------------|
|-7b9==(7)r---------10b12==(10)r---|-12b14==(12)r-------------|-14b16==(14)r-------------|
|----------------------------------|--------------------------|--------------------------|
|----------------------------------|--------------------------|--------------------------|
|----------------------------------|--------------------------|--------------------------|


                                                        ~~~~~
   a       E.   a        S   +E    a       E    a       H
|---------12------------12--(12)----------12-----------12---------||
|-15b17==(15)r(15)b17==(15)-(15)r-15b17==(15)r-15b17==(15)r-------||
|-----------------------------------------------------------------||
|-----------------------------------------------------------------||
|-----------------------------------------------------------------||
|-----------------------------------------------------------------||


 Guitar Solo
w/Rhy Fig 5
  Gtr III
   PM------|            ~~                   ~~
   S  S  S  S  S  E.    Q    E  E    +E   E  Q   a  E  E  E  E
|---------------------------------|----------------------------|
|---------------------------------|----------------------------|
|-------------12-12---------12----|----------------14-12-------|
|-------------12-12----14------12-|-(12)h14-14---x-------14-12-|
|-12-12-14-14---------------------|----------------------------|
|---------------------------------|----------------------------|

w/Rhy FIg 5A x3
                                                          ~~
    E  S S  Q    Q    E  E    +E   E  E  E Q         +S   E.
|--------------------------|-------------------------------------|
|--------------------------|-------------------------------------|
|---x--x-x-----------------|-------------------------------------|
|---x--x-x-12---14---14-12-|-(12)-14-14-14----------------2------|
|--------------------------|-------------------------------------|
|--------------------------|---------------3b3.5=====(3)r--------|


                               ~~~~~~~~~    ~~
    E  E  E      +E    Q    E  E    +E   E  Q    E      +E    E      +E
|--------------------------------|----------------------------------------|
|--------------------------------|--------------14b15==(14)r--------------|
|---x--x-------------------12----|--------------14b15==(14)r--------------|
|---x--x-12b13==(12)r-14---14-12-|-(12)-14-14-----------------------------|
|--------------------------------|---------------------------12b13==(12)r-|
|--------------------------------|----------------------------------------|


         ~~~                   ~~~                                   ~~~
     S   E. E  a      +E    S  E.   E  a      +E      E  E  E  E  S  E.     E  E
|--------------------------------------------------|-----------------------------|
|-----------x-14b15==(14)r----------x-14b15==(14)r-|-12--------------------------|
|---12------x-14b15==(14)r-12-------x-14b15==(14)r-|-12--------------------------|
|-------14--------------------14-------------------|----14-12----12h14-----12----|
|--------------------------------------------------|----------14--------------14-|
|--------------------------------------------------|-----------------------------|


  B5                                              C5
  Gtrs IV, V
   Q           Q           E     E             E  E
   |           |           |     |             |  |
   /           /           /     /             /  /

  Gtr III
                                               ~~~~~~
   S  S  S  S  S  S  S  S  S  S  S  S  a      +Q
|-15p12----12---------------------------------------|
|-------15----15p12----12---------------------------|
|-------------------14----14-12----12-14b16==(14)---|
|-------------------------------14------------------|
|---------------------------------------------------|
|---------------------------------------------------|


               A5                   C5    A5
    E           E     Q           E  E  E E
                |     |           |  |  | |
                /     /           /  /  / /

 ~~~~~~~                             ~~~
    |---3----|
   +S   +S   S  S  S  S  S  S  S  E  Q.
|-------------------------------------------|
|-------------------------------------------|
|-(14)r(14)p12----12-14-12-------12---------|
|--------------14----------14-12----14------|
|-------------------------------------------|
|-------------------------------------------|


  B5                                                    C5
   Q                      Q     E     E          E       E
   |                      |     |     |          |       |
   /                      /     /     /          /       /

                          ~~~~~
   |--3--|
   S  S  S  S  S  a      +Q     S  S  S  S      +S    S  S  S
|-12h15p12----12---------------12--------------------12-------|
|----------15----15b17==(15)r-----15-12-15b17==(15)r----15p12-|
|-------------------------------------------------------------|
|-------------------------------------------------------------|
|-------------------------------------------------------------|
|-------------------------------------------------------------|


                  A5                                          D5                    E5
           E       E             Q                     E       E             E       E
                   |             |                     |       |             |       |
                   /             /                     x       /             /       /

   a      +S    S  S  S  a      +S    S  S  S  a      +S    S  S  S  a      +S    S  S  S
|--------------12---------------------------------------------------------------------------|
|-15b17==(15)r----15p12--------------12-15p12--------------12-15p12--------------12-15p12---|
|-----------------------14b16==(14)r----------14b16==(14)r----------14b16==(14)r------------|
|-------------------------------------------------------------------------------------------|
|-------------------------------------------------------------------------------------------|
|-------------------------------------------------------------------------------------------|

w/Rhy Fig 5
  Gtr III
         |--3--|  |---------7---------|        |--3--|  |--3--|
   S  S  S  S  S  S  S  S  S    S  S  S  S  S  S  S  S  S  S  S  S  S
|---------------------------------------------------------------------|
|----12-15p12----12h15p12------12h15p12-15p12----12h15p12----12h15p12-|
|-14----------14----------14------------------14----------14----------|
|---------------------------------------------------------------------|
|---------------------------------------------------------------------|
|---------------------------------------------------------------------|


                                                            ~~~~~
   |------6-------|  |--3--|
   S  S  S  S  S  S  S  S  S  S  S  a      +Q       a      +Q
|-----------------------------------------------------------------|
|----12h15p12-12-12h15p12----15p12-15b17==(15)r----15b17==(15)r---|
|-14----------------------14--------------------------------------|
|-----------------------------------------------------------------|
|-----------------------------------------------------------------|
|-----------------------------------------------------------------|


w/Rhy Fig 5A x3
   TP   TP   TP   TP
   Q    Q    Q    Q      Q    E  E  E  E  Q
|-----------15--------|-----------------------|
|-12---14---15---14---|-12---14-14-15-14-12---|
|-12---14---15---14---|-12---14-14-15-14-12---|
|---------------------|-----------------------|
|---------------------|-----------------------|
|---------------------|-----------------------|


             ~~~~~                 ~~~
  E  E      +Q      S  S  S  S  S  E.
|---------------------------------------|
|---15b17==(15)r---15-12----------------|
|------------------------14-12----------|
|------------------------------14-12----|
|---------------------------------------|
|---------------------------------------|


             ~~~~~                 ~~~
  E  E      +Q      S  S  S  S  S  E.     E  E      +Q      E      +E   E  a      +E
|---------------------------------------|---------------------------------------------|
|---15b17==(15)r---15-12----------------|---15b17==(15)r---15b17==(15)r---15b17==(15)-|
|------------------------14-12----------|---------------------------------------------|
|------------------------------14-12----|---------------------------------------------|
|---------------------------------------|---------------------------------------------|
|---------------------------------------|---------------------------------------------|


   +E   E  a      +E   E  E  E  E      +E
|--------------------------------------------|
|-(15)r-0-15b17==(15)r-0-12----15b17==(15)r\-|
|-------0--------------0-12------------------|
|---------------------------14---------------|
|--------------------------------------------|
|--------------------------------------------|

w/Rhy Fig 4
  a  Q  Q  Q    E  a  E      +E   E  E  a  E  +E   E  Q
|-----------------------|---------------------------------|
|-----------------------|---------------------------------|
|--------------12-12s14-|---(14)-12-12-12s14-(14)-12-11---|
|-7h=9--9--9------------|---------------------------------|
|----7--7--7---10-10s12-|---(12)-10-10-10s12-(12)-10--9---|
|-----------------------|---------------------------------|

                                                                                          ~~
                                                                               |---3----|
     +E   E  E  E  a      +E   +E   S  S  E      E  a      +E    E  E  a      +E   +E   E  Q
|-------------------------------------------|------------------------------------------------|
|--------------14-14b15==(14)r(14)----------|-------------------15-12------------------------|
|---(11)----12-14-14b15==(14)r(14)-14p12----|---12-14b16==(14)r-------14b16==(14)r(14)p12----|
|--------14------------------------------14-|---------------------------------------------14-|
|----(9)------------------------------------|------------------------------------------------|
|-------------------------------------------|------------------------------------------------|

w/Rhy Fig 4A
    ~~~~~                                             ~~~~~
   +Q    Q  Q    E  a  E      +E   Q    a  E  +E   E  Q
|------------------------|--------------------------------|
|------------------------|--------------------------------|
|--------9--9---12-12s14-|---(14)-12---12s14-(14)-12-11---|
|-(14)\------------------|--------------------------------|
|--------7--7---10-10s12-|---(12)-10---10s12-(12)-10--9---|
|------------------------|--------------------------------|

 ~~~~~~~~~
     +E     E  E  E  E   E  E  E      E  E  a      +Q    a  +S   S  E  E      +E
|--------------------------------|--------------------------------------------------||
|--------------------------------|---12-14-14b15==(14)--14r(14)p12------------------||
|---(11)\-/12-12s14-14s=16-------|---12-14-14b16==(14)--14r(14)p12----14b16==(14)r--||
|--------------------------12-14-|---------------------------------14---------------||
|----(9)\-/10-10s12-12s=14-------|--------------------------------------------------||
|--------------------------------|--------------------------------------------------||


   Q   +Q    H         W                 W                W
|-------------------|------------------|---------------|--------------------|
|-12----------------|------------------|---------------|--------------------|
|-12--(12)\---------|------------------|---------------|--------------------|
|-------------------|------------------|---------------|--------------------|
|-------------------|------------------|---------------|--------------------|
|-------------------|------------------|---------------|--------------------|
|
| Gtrs I, II
|                ~                                  ~                    ~
|  Q    Q    E E Q     Q   E E E E E E   Q   Q  E E Q     Q   E  E E E a Q
|-------------------|------------------|---------------|--------------------|
|-------------------|------------------|---------------|--------------------|
|-------------------|------------------|---------------|--------------------|
|------------5p0----|--------------5---|--------5p0----|--------------------|
|------/7--------7--|-(7)--7-----5---7-|----/7------7--|-(7)--7\-----4-4s2--|
|--0----------------|--0-----0-5-------|-0-------------|--0------0h5---5s3--|


  Gtrs I, II
             ~                                  ~               ~
  Q   Q  E E Q     Q   E E E E E E   Q   Q  E E Q    Q  E E E E Q
|---------------|------------------|---------------|---------------|
|---------------|------------------|---------------|---------------|
|---------------|------------------|---------------|---------------|
|--------5p0----|--------------5---|--------5p0----|---------------|
|----/7------7--|-(7)--7-----5---7-|----/7------5--|----5-----5----|
|-0-------------|--0-----0-5-------|-0-------------|-3----3s2---2--|


  Gtr I
             ~                                  ~                    ~
  Q   Q  E E Q     Q   E E E E E E   Q   Q  E E Q     Q   E  E E E a Q
|---------------|------------------|---------------|--------------------|
|---------------|------------------|---------------|--------------------|
|---------------|------------------|---------------|--------------------|
|--------5p0----|--------------5---|--------5p0----|--------------------|
|----/7------7--|-(7)--7-----5---7-|----/7------7--|-(7)--7\-----4-4s2--|
|-0-------------|--0-----0-5-------|-0-------------|--0------0h5---5s3--|


                                                         D.S.S. al Dbl. Coda
             ~                                        ~~~~~~~             ~
  Q   Q  E E Q     Q   E E E E E E   Q   Q  E E a    +S  +E.   Q  E E E E Q
|---------------|------------------|-------------------------|---------------||
|---------------|------------------|-------------------------|---------------||
|---------------|------------------|-------------------------|---------------||
|--------5p0----|--------------5---|--------5h7-7b8==(7)r(7)-|---------------||
|----/7------7--|-(7)--7-----5---7-|----/7-------------------|----5-----5----||
|-0-------------|--0-----0-5-------|-0-----------------------|-3----3s2---2--||


  &&
                  Em
                Gtr I
  W                W           +W
                   |            |
                   /            /

  Gtr I         Gtr II
             ~
  Q  E E E E Q     W           +W
|---------------|-12--------|-(12)----*|
|---------------|-12--------|-(12)----*|
|---------------|-12--------|-(12)----*|
|---------------|-14--------|-(14)----*|
|----5-----5----|-----------|---------*|
|-3----3s2---2--|-----------|---------*|










I'm diggin' my way
I'm diggin' my way to somethin'
I'm diggin' my way to somethin' better

I'm pushin' to stay
I'm pushin' to stay with something
I'm pushin' to stay with something better

I'm sowin' the seeds
I'm sowin' the seeds I've taken
I'm sowin' the seeds I take for granted

This thorn in my side
This thorn in my side is from the tree
This thorn in my side is from the tree I've planted
It tears me and I bleed
And I feel

Caught under the wheels roll
I take the leech
I'm bleeding me
Can't stop to save my soul
I take the leash that's leading me
I'm bleeding me
Ooh, I can't take it
Caught under wheels roll
Oh, the bleeding of me
Of me
The bleeding of me

Caught under wheels roll
I take the leech
I'm bleeding me
Can't stop to save my soul
I take the leash that's leading me
I'm bleeding me
Ooh, I can't take it
Caught under wheels roll
Oh, the bleeding of me
Oh, the bleeding of me

I am the beast that feeds the beast
I am the blood
I am release
Come make me pure
Bleed me a cure
I'm caught, I'm caught, I'm caught under

Caught under wheels roll
I take that leech
I'm bleeding me
Can't stop to save my soul
I take the leash that's leading me
I'm bleeding me
Oh, I can't take it
I can't take it
I can't take it
Oh, the bleeding of me

I'm diggin' my way
I'm diggin' my way to somethin'
I'm diggin' my way to something better

I'm pushin' to stay
I'm pushin' to stay with somethin'
I'm pushin' to stay with something better
With something better











---------------


version 3







Symobls

/ or \ = slide
     p = pull off
     h = hammer
     X = mute strings

and the "o" on the Gb and Db strings on some of the riffs means to
repeat, they are not notes.  So the riffs that start and end with the 
double "o" are repeated (sometimes more than once).

This is my first attempt at putting timing in...so dont flame too much



Intro 
    
      1   2   3   4   1   2   3   4    1   2   3   4   1   2   3   4     
  Eb|--------------------------------|--------------------------------|
  Bb|--------------------------------|--------------------------------|
  Gb|o-------------------------------|--------------------------------|
  Db|o--------5-------------------5--|---------5----------------------|
  Ab|-----5/7---5-7-------7-----5--7-|-----5/7---5-7-------7-----5----|
  Eb|-0---------------0-----5-3------|-0---------------0-----5\3---3^-|
 
      1   2   3   4   1   2   3   4    1   2   3   4   1   2   3   4     
  Eb|--------------------------------|--------------------------------|
  Bb|--------------------------------|--------------------------------|
  Gb|--------------------------------|-------------------------------o|
  Db|---------5-------------------5--|---------5---------------------o|
  Ab|-----5/7---5-7-------7-----5--7-|-----5/7---5-7-------5-----5----|
  Eb|-0---------------0-----5-3------|-0---------------3-----3\2---3^-|

  
Intro Fill

      1   2   3   4   1   2   3   4    1   2   3   4   1   2   3   4     
  Eb|--------------------------------|--------------------------------|
  Bb|-8-------8-------8-------8---6--|-8-------8-------8-------8---6--|
  Gb|o-------------------------------|-------------------------------o|
  Db|o-------------------------------|-------------------------------o|
  Ab|--------------------------------|--------------------------------|
  Eb|--------------------------------|--------------------------------|


Pre Chorus (the "Wo-ah  oh oh oh..." part)

{This isn't exactly what I play but its close and easier to tab}
{I haven't figured out the lead over this yet}

       1   2   3   4   1   2   3   4   1   2   3   4   1   2   3   4     
  Eb|-----------------------------------------------------------------|
  Bb|-----------------------------------------------------------------|
  Gb|o---------------------------------------------------------------o|
  Db|o-7-h-9-X-9-------5-h-7-X-7-------5-h-7-X-7---------------------o|
  Ab|--7-----X-7---X---5-----X-5---X---5-----X-5---X---5-h-7-X-7------|
  Eb|--------------------------------------------------5-------5-X-3^-|


Chorus (the "Caught under wheels roll..." part)

{This isn't exactly what I play but its close and easier to tab}

       1   2   3   4   1   2   3   4   1   2   3   4   1   2   3   4     
  Eb|-----------------------------------------------------------------|
  Bb|-----------------------------------------------------------------|
  Gb|o---------------------------------------------------------------o|
  Db|o-9---9---9---X---5h7-7---7---X---5h7-7---7---X-----------------o|
  Ab|--7---7---7---X---5---5---5---X---5---5---5---X---7---7---7------|
  Eb|--------------------------------------------------5---5---5-0-3^-|

{Short pause at about 4'48" then its starts up with}
{The "I am the beast that is the feast..." part} 

       1   2   3   4   1   2   3   4     
  Eb|-----------------------------------|
  Bb|-----------------------------------|
  Gb|o-----------------------------5---o|
  Db|o-7h9-----9-----7-----9-----5---5-o|
  Ab|--7---X-X-7-X-X-7-X-X-7-X-5--------|
  Eb|-----------------------------------|

The solo I dont really know (and if I did I probably couldn't play all
of it) but it seems to be centralized between the 12th and 15th frets.










I'm diggin' my way
I'm diggin' my way to somethin'
I'm diggin' my way to somethin' better

I'm pushin' to stay
I'm pushin' to stay with something
I'm pushin' to stay with something better

I'm sowin' the seeds
I'm sowin' the seeds I've taken
I'm sowin' the seeds I take for granted

This thorn in my side
This thorn in my side is from the tree
This thorn in my side is from the tree I've planted
It tears me and I bleed
And I feel

Caught under the wheels roll
I take the leech
I'm bleeding me
Can't stop to save my soul
I take the leash that's leading me
I'm bleeding me
Ooh, I can't take it
Caught under wheels roll
Oh, the bleeding of me
Of me
The bleeding of me

Caught under wheels roll
I take the leech
I'm bleeding me
Can't stop to save my soul
I take the leash that's leading me
I'm bleeding me
Ooh, I can't take it
Caught under wheels roll
Oh, the bleeding of me
Oh, the bleeding of me

I am the beast that feeds the beast
I am the blood
I am release
Come make me pure
Bleed me a cure
I'm caught, I'm caught, I'm caught under

Caught under wheels roll
I take that leech
I'm bleeding me
Can't stop to save my soul
I take the leash that's leading me
I'm bleeding me
Oh, I can't take it
I can't take it
I can't take it
Oh, the bleeding of me

I'm diggin' my way
I'm diggin' my way to somethin'
I'm diggin' my way to something better

I'm pushin' to stay
I'm pushin' to stay with somethin'
I'm pushin' to stay with something better
With something better










---------------


version 4










Tuning:Eb
 

Intro: (bass n drums)

Em

Em
I'm digging my way

I'm digging my way to something

I'm digging my way to something better

 

I'm pushing to stay

I'm pushing to stay with something

I'm pushing to stay with something better

 

Em D Dsus4 D
 

I'm sowing the seeds

I'm sowing the seeds I've taken

I'm sowing the seeds I take for granted                    

 

This thorn in my side

This thorn in my side is from the tree

This thorn in my side is from the tree I've planted

                       Em D Dsus4 D
It tears me and I bleed

D Dsus4 D Em     B D    Em
             And I bleed

D Dsus4 D Dsus4 D A E G

 

E5                 D5

Caught under wheels' roll

                A5
I take the leech, I'm bleeding me

E5               D5
Can't stop to save my soul

               A5
I take the leash that's leading me

E5              D5
I'm bleeding me

A5
I can't take it

E5                 D5
Caught under wheels' roll

   A5             E5 
The bleeding of me

D Dsus4 D

 

Em  B  D  Em

    Of me

D Dsus4 D
 

A            E  G
The bleeding of me

 

Em

 

E5                 D5

Caught under wheels' roll

                A5
I take the leech, I'm bleeding me

E5               D5
Can't stop to save my soul

               A5
I take the leash that's leading me

E5              D5
I'm bleeding me

A5
I can't take it

E5                 D5
Caught under wheels' roll

   A5             E5 
The bleeding of me

 

A                 E5
The bleeding of me

 

E5

 

E5

I am the beast that feeds the feast

E5
I am the blood, I am release

 

E5
Come make me pure

               E5
Bleed me a cure

I'm caught, I'm caught, I'm caught under

 

E5                 D5
Caught under wheels' roll

                   A5
I take that leech, I'm bleeding me

E5                D5
Can't stop to save my soul

                A5
I take the leash that's leading me

E5              D5
I'm bleeding me

A5
I can't take it

E5
I can't take it

D5
I can't take it

A5                E5
The bleeding of me

 

Solo:

E5 

A5 C5 A5 C5 A5

C5 A5 D5 E5

E5

E5

 

E5 D5

A5 E5 D5

A5

 

Em

I'm digging my way

I'm digging my way to something

I'm digging my way to something better

 

I'm pushing to stay

I'm pushing to stay with something

I'm pushing to stay with something better

                 Em
With something better











----------------
Want More Free Lessons?

Browse through the Archive!

PROBLEM WITH THIS TAB? | VIEW FULL SCREEN | PRINT

AutomotixTigerGPS