Lessons/Tabs are sorted alphabetically.

Tab Vault

PROBLEM WITH THIS TAB?   VIEW FULL SCREEN   PRINT

Die Die My Darling

Metallica
Die Die My Darling by Metallica






                      Die Die My Darling








Intro/Chorus Riff
(x3)
|------------------------------------|
|------------------------------------|
|--4--4--4--4--4--4--4--4------------|
|--4--4--4--4--4--4--4--4--5----4----|
|--2--2--2--2--2--2--2--2--5----4----|
|--------------------------3----2----|
Chorus ending:
|--0~~~~---------------------------------------------------------|
|--0~~~~---------------------------------------------------------|
|--0~~~~--4----------------------------------4-4-4-4-4-4-4-4--4--|
|--2~~~~--4---------------------------4-2~~--2-2-2-2-2-2-2-2--2--|
|--2~~~~--2-2-2-2-2-2-2-2-2-2-2-2-2-2-2-2~~--2-2-2-2-2-2-2-2--2--|
|--0~~~~--------------------------------0~~--0-0-0-0-0-0-0-0--0--|
OR          pm.......................|       pm release.....|
|----------------------------------------------------------------|
|----------------------------------------------------------------|
|--9~~~~--4----------------------------------4-4-4-4-4-4-4-4--4--|
|--9~~~~--4---------------------------4-2~~--2-2-2-2-2-2-2-2--2--|
|--7~~~~--2-2-2-2-2-2-2-2-2-2-2-2-2-2-2-2~~--2-2-2-2-2-2-2-2--2--|
|--0~~~~--------------------------------0~~--0-0-0-0-0-0-0-0--0--|
                                             pm release.....|

Verse
(x6)
|-------------------------------------------------|
|--4----------------------------------------------|
|--4-4-4-4-4-4-4-4-4-4-4-4-4-4-4-4-------7---6----|
|--4-4-4-4-4-4-4-4-4-4-4-4-4-4-4-4-5-----7---6----|
|--2-2-2-2-2-2-2-2-2-2-2-2-2-2-2-2-5-----5---4----|
|----------------------------------3--------------|
|    pm...........................|               |
|-------------------------------------------------|
|-------------------------------------------------|
|--4---4---4---4---4---4---4---4---------7-7-6-6--|
|--4---4---4---4---4---4---4---4---5-----7-7-6-6--|
|--2---2---2---2---2---2---2---2---5-----5-5-4-4--|
|----------------------------------3--------------|

Chorus riff (x2 - w/Chorus ending)

Verse Again (Verse Riff x6)

Chorus riff (x2 - w/Chorus ending)

HELLLLL
|---------------------------------------------------------|
|---------------------------------------------------------|
|--4--4--4--4--4--4--4--4--4--4--4--4--4~~~~~~~~~~~~~~~~--|
|--4--4--4--4--4--4--4--4--4--4--4--4--4~~~~~~~~~~~~~~~~--|
|--2--2--2--2--2--2--2--2--2--2--2--2--2~~~~~~~~~~~~~~~~--|
|---------------------------------------------------------|
|                                                         |
|-------------------------------------------------------14|
|-------------------------------------------12-12-12-12-12|
|--4--4--4--4--4--4--4--4--4--4--4--4--4------------------|
|--4--4--4--4--4--4--4--4--4--4--4--4--4------------------|
|--2--2--2--2--2--2--2--2--2--2--2--2--2------------------|
|---------------------------------------------------------|










---------------


version 2 







Ref 1:
|-------------|------------|----------------|------------------|
|-------------|------------|----------------|------------------|
|o-4--4--4--4-|-4--4--4--4-|----------------|-----------------o| x3
|o-4--4--4--4-|-4--4--4--4-|-5--5-5-5-5-5-5-|-4-4-4-4-4-4-4-4-o|
|--2--2--2--2-|-2--2--2--2-|-5--5-5-5-5-5-5-|-4-4-4-4-4-4-4-4--|
|-------------|------------|-3--3-3-3-3-3-3-|-2-2-2-2-2-2-2-2--|
 
Die, die, die my darling
 Don't utter a single word
 Die, die, die my darling
 Just shut your pretty eyes
 
|-0-------|---------|-----------------|-----------------|
|-0-------|---------|-----------------|-----------------|
|-0-------|---------|-4-4-4-4-4-4-4-4-|-4-4-4/6-6\4-4-4-|
|-2-------|---------|-4-4-4-4-4-4-4-4-|-x-x-x/x-x\x-x-x-|
|-2-------|---------|-2-2-2-2-2-2-2-2-|-2-2-2/4-4\2-2-2-|
|-0-------|---------|-----------------|-----------------|
 
I'll be seeing you again 
             pm..............|
|----0-----|-----------------|---------|
|----0-----|-----------------|---------|
|----------|-----------------|---------|
|-2--------|-----------------|---------|
|-2--------|-5-5-5-5-5-5-5-5-|-5-------|
|-0--------|-3-3-3-3-3-3-3-3-|-3-------|
 
I'll be seeing you in Hell 

Verse 1:
  pm................................|
|-----------------|-----------------|----------------|-----------------|
|-----------------|-----------------|----------------|-----------------|
|-4-4-4-4-4-4-4-4-|-4-4-4-4-4-4-4-4-|----------------|-7-7-7-7-6-6-6-6-|
|-4-4-4-4-4-4-4-4-|-4-4-4-4-4-4-4-4-|-5--5-5-5-5-5-5-|-7-7-7-7-6-6-6-6-|
|-2-2-2-2-2-2-2-2-|-2-2-2-2-2-2-2-2-|-5--5-5-5-5-5-5-|-5-5-5-5-4-4-4-4-|
|-----------------|-----------------|-3--3-3-3-3-3-3-|-----------------|
                                      Don't cry to me oh baby
     pm.............................|
|-----------------|-----------------|----------------|------------------|
|-----------------|-----------------|----------------|------------------|
|o-4--4-4-4-4-4-4-|-4-4-4-4-4-4-4-4-|----------------|-7-7-7-7-6-6-6-6-o| x5
|o-4--4-4-4-4-4-4-|-4-4-4-4-4-4-4-4-|-5--5-5-5-5-5-5-|-7-7-7-7-6-6-6-6-o|
|--2--2-2-2-2-2-2-|-2-2-2-2-2-2-2-2-|-5--5-5-5-5-5-5-|-5-5-5-5-4-4-4-4--| 
|-----------------|-----------------|-3--3-3-3-3-3-3-|------------------|
 
Your future's in an oblong box
 Don't cry to me oh baby
 Should have seen it a-coming on
 Don't cry to me oh baby 
 I don't know it was in your power
 Don't cry to me oh baby
 Dead-end girl for a dead-end guy
 Don't cry to me oh baby
 And now your life drains on that floor
 Don't cry to me oh baby 

 Ref 2:
|-------------|------------|----------------|------------------|
|-------------|------------|----------------|------------------|
|o-4--4--4--4-|-4--4--4--4-|----------------|-----------------o|
|o-4--4--4--4-|-4--4--4--4-|-5--5-5-5-5-5-5-|-4-4-4-4-4-4-4-4-o|
|--2--2--2--2-|-2--2--2--2-|-5--5-5-5-5-5-5-|-4-4-4-4-4-4-4-4--|
|-------------|------------|-3--3-3-3-3-3-3-|-2-2-2-2-2-2-2-2--|
 
Die, die, die my darling
Don't utter a single word
Die, die, die my darling
Just shut your pretty mouth

|-0-------|---------|-----------------|---------------|
|-0-------|---------|-----------------|---------------|
|-0-------|---------|-4-4-4-4-4-4-4-4-|-4-/6-6-/7-7\x-|
|-2-------|---------|-4-4-4-4-4-4-4-4-|-x-/x-x-/x-x---|
|-2-------|---------|-2-2-2-2-2-2-2-2-|-2-/4-4-/5-5\x-|
|-0-------|---------|-----------------|---------------|
  I'll be seeing you again
             pm................................|
|----0-----|-----------------|-----------------|
|----0-----|-----------------|-----------------|
|----------|-----------------|-----------------|
|-2--------|-----------------|-----------------|
|-2--------|-5-5-5-5-5-5-5-5-|-5-5-5-5-5-5-5-5-|
|-0--------|-3-3-3-3-3-3-3-3-|-3-3-3-3-3-3-3-3-|
 
I'll be seeing you in Hell 
 

Verse 2 

Ref 3:
|-------------|------------|----------------|------------------|
|-------------|------------|----------------|------------------|
|o-4--4--4--4-|-4--4--4--4-|----------------|-----------------o|
|o-4--4--4--4-|-4--4--4--4-|-5--5-5-5-5-5-5-|-4-4-4-4-4-4-4-4-o|
|--2--2--2--2-|-2--2--2--2-|-5--5-5-5-5-5-5-|-4-4-4-4-4-4-4-4--|
|-------------|------------|-3--3-3-3-3-3-3-|-2-2-2-2-2-2-2-2--|

 Die, die, die my darling
 Don't utter a single word
 Die, die, die my darling
 Just shut your pretty eyes 

|-0-------|---------|-----------------|----------------|
|-0-------|---------|-----------------|----------------|
|-0-------|---------|-4-4-4-4-4-4-4-4-|-4-/6-6/7-7/9-9-|
|-2-------|---------|-4-4-4-4-4-4-4-4-|-x-/x-x/x-x/x-x-|
|-2-------|---------|-2-2-2-2-2-2-2-2-|-2-/4-4/5-5/7-7-|
|-0-------|---------|-----------------|----------------|
  
I'll be seeing you again
             pm..............|
|----0-----|-----------------|---------|
|----0-----|-----------------|---------|
|----------|-----------------|---------|
|-2--------|-----------------|---------|
|-2--------|-5-5-5-5-5-5-5-5-|-5-------|
|-0--------|-3-3-3-3-3-3-3-3-|-3-------|
 
I'll be seeing you in Hell 

|------------|------------|------------|---------|--------|
|------------|------------|------------|---------|--------|
|-4--4--4--4-|-4--4--4--4-|-4--4--4--4-|-4-------|--------| 
|-4--4--4--4-|-4--4--4--4-|-4--4--4--4-|-4-------|--------|
|-2--2--2--2-|-2--2--2--2-|-2--2--2--2-|-2-------|--------|
|------------|------------|------------|---------|--------|












---------------


version 3







Intro:

e-----------------------------------------------------
B-----------------------------------------------------
G-3-3-3-3-3-3-3-3-3-----------------------------------
D-3-3-3-3-3-3-3-3-3-4-4-4-4-4-4-4-4-4-3-3-3-3-3-3-3-3-
A-1-1-1-1-1-1-1-1-1-4-4-4-4-4-4-4-4-4-3-3-3-3-3-3-3-3-
E-------------------2-2-2-2-2-2-2-2-2-1-1-1-1-1-1-1-1-

Chorus:

e-----------------------------------------------------
B-----------------------------------------------------
G-3-3-3-3-3-3-3-3-3-----------------------------------
D-3-3-3-3-3-3-3-3-3-4-4-4-4-4-4-4-4-4-3-3-3-3-3-3-3-3-
A-1-1-1-1-1-1-1-1-1-4-4-4-4-4-4-4-4-4-3-3-3-3-3-3-3-3-
E-------------------2-2-2-2-2-2-2-2-2-1-1-1-1-1-1-1-1-

Repeat a few 

Post-verse

e----------------------------------------------------
B----------------------------------------------------
G-8----3----8--------------------------3-3-3-3-3-3-3-
D-8----3----8-----4-4-4-4-4-4-4-4-4-4--3-3-3-3-3-3-3-
A-6----1----6-----4-4-4-4-4-4-4-4-4-4--1-1-1-1-1-1-1-
E-----------------2-2-2-2-2-2-2-2-2-2----------------

Verse:

e-----------------------------------------------------
B-----------------------------------------------------
G-----------------------------------3-3-3-3-3-3-3-3---
D-4-4-4-4-4-4-4-4--3-3-3-3-3-3-3-3--3-3-3-3-3-3-3-3---
A-4-4-4-4-4-4-4-2--3-3-3-3-3-3-3-3--1-1-1-1-1-1-1-1---
E-2-2-2-2-2-2-2-2--1-1-1-1-1-1-1-1--------------------












---------------


version 4









B                       G             F#
die die die my darling, don't utter a single word
B                       G         F#
die die die my darling, shut your pretty eyes
E                      B
i'll be seeing you again 
E       G            
i'll be seeing you... in
B     G           F# 
hell, dont try to be a baby
B                                G           F#
your future is in an oblong box, dont try to be a baby
should have seen the end a coming on, dont try to be a baby
i dont know what was in your power, dont try to be a baby
dead end girl for a dead end guy, dont try to be a baby
now your life drains on the floor, dont try to be a baby
B                       G            F#
die die die my darling, dont utter a single word
B                       G         F#
die die die my darling, shut your pretty mouth
E                      B
i'll be seeing you again
E       G            B
i'll be seeing you....in hell











------------
Want More Free Lessons?

Browse through the Archive!

PROBLEM WITH THIS TAB? | VIEW FULL SCREEN | PRINT

TigerGPSRebel Circus