Lessons/Tabs are sorted alphabetically.

Tab Vault

PROBLEM WITH THIS TAB?   VIEW FULL SCREEN   PRINT

Dirty Window

Metallica
Dirty Window by Metallica





                      Dirty Window 







Dropped C Tuning

CGCFAD

                       
D|----------------------|
A|----------------------|
F|----------------------|
C|----------------------|play x6
G|----------------------|
C|-0-0-0-0--0--0--0-0--0|
(Listen to song for exact rythym)


                          
D|-------------------------|
A|-------------------------|
F|-------------------------|
C|-------------------------|play x5
G|-------------------5-----|
C|-0-3-5-0-3-5-0-3-5---6-5-|


D|---------------|
A|---------------|
F|---------------|
C|---------------|play once
G|-0----0-3----3-|
C|-0----0-3----3-|

D|-------------------------|
A|-------------------------|
F|-------------------------|
C|-------------------------|play x4 
G|-------------------5-----|
C|-0-3-5-0-3-5-0-3-5---6-5-|

D|---------------|
A|---------------|
F|---------------|
C|---------------|play once
G|-0----0-3----3-|
C|-0----0-3----3-|

D|-------------------------|
A|-------------------------|
F|-------------------------|
C|-------------------------|play twice
G|-------------------5-----|
C|-0-3-5-0-3-5-0-3-5---6-5-|
  pm-----------------------

D|-------------------------|
A|-------------------------|
F|-------------------------|
C|-------------------------|play x3
G|-------------------------|
C|-0-3-5-0-------0-3-5-7~~~|
-
D|-------------------------------------------------|
A|-------------------------------------------------|
F|-------------------------------------------------|
C|-------------------------------------------------|play once
G|-3-6-8-0-------3-6-8-------3-6-8-0---------------|
C|-3-6-8-0-------3-6-8-10~~--3-6-8-0---0-3-5-0-3-5-|

D|-------------------------|
A|-------------------------|
F|-------------------------|
C|-------------------------|play x2
G|-------------------5-----|
C|-0-3-5-0-3-5-0-3-5---6-5-|

D|--------------------------------------------|
A|--------------------------------------------|
F|-2---2--2p0--0h3p2--------------------------|
C|-0---3--------------------------------------|play twice
G|--------------------------------------5-----|
C|--------------------0-3-5-0-3-5-0-3-5---6-5-|



D|---------|              D|--------------|
A|---------|              A|--------------|
F|---------|              F|--------------|
C|---------|play x2 then: C|--------------| 
G|-0-3-5-0-|              G|--------5-----|
C|-0-3-5-0-|              C|--0-3-5---6-5-|


D|---------|              D|--------------|
A|---------|              A|--------------|
F|---------|              F|--------------|
C|---------|play x3 then: C|--------------| play x2
G|-0-3-5-0-|              G|--------5-----|
C|-0-3-5-0-|              C|--0-3-5---6-5-|

D|----------------------|
A|----------------------|
F|----------------------|
C|----------------------|play twice
G|----------------------|
C|-0-0-0-0--0--0--0-0--0|

D|-------------------------|
A|-------------------------|
F|-------------------------|
C|-------------------------|play x4 
G|-------------------5-----|
C|-0-3-5-0-3-5-0-3-5---6-5-|

D|---------------|
A|---------------|
F|---------------|
C|---------------|play once
G|-0----0-3----3-|
C|-0----0-3----3-|

D|-------------------------|
A|-------------------------|
F|-------------------------|
C|-------------------------|play twice
G|-------------------5-----|
C|-0-3-5-0-3-5-0-3-5---6-5-|
  pm-----------------------

D|-------------------------|
A|-------------------------|
F|-------------------------|
C|-------------------------|play x3
G|-------------------------|
C|-0-3-5-0-------0-3-5-7~~~|
-
D|-------------------------------------------------|
A|-------------------------------------------------|
F|-------------------------------------------------|
C|-------------------------------------------------|play once
G|-3-6-8-0-------3-6-8-------3-6-8-0---------------|
C|-3-6-8-0-------3-6-8-10~~--3-6-8-0---0-3-5-0-3-5-|

D|-------------------------|
A|-------------------------|
F|-------------------------|
C|-------------------------|play x2
G|-------------------5-----|
C|-0-3-5-0-3-5-0-3-5---6-5-|

D|--------------------------------------------|
A|--------------------------------------------|
F|-2---2--2p0--0h3p2--------------------------|
C|-0---3--------------------------------------|play twice
G|--------------------------------------5-----|
C|--------------------0-3-5-0-3-5-0-3-5---6-5-|



D|---------|              D|--------------|
A|---------|              A|--------------|
F|---------|              F|--------------|
C|---------|play x2 then: C|--------------| 
G|-0-3-5-0-|              G|--------5-----|
C|-0-3-5-0-|              C|--0-3-5---6-5-|


D|---------|              D|--------------|
A|---------|              A|--------------|
F|---------|              F|--------------|
C|---------|play x3 then: C|--------------| play x2
G|-0-3-5-0-|              G|--------5-----|
C|-0-3-5-0-|              C|--0-3-5---6-5-|

D|----------------------|
A|----------------------|
F|----------------------|
C|----------------------|play x18
G|----------------------|
C|-0-0-0-0--0--0--0-0--0|

D|-------------------------|
A|-------------------------|
F|-------------------------|
C|-------------------------|play x2
G|-------------------5-----|
C|-0-3-5-0-3-5-0-3-5---6-5-|

D|--------------------------------------------|
A|--------------------------------------------|
F|-2---2--2p0--0h3p2--------------------------|
C|-0---3--------------------------------------|play twice
G|--------------------------------------5-----|
C|--------------------0-3-5-0-3-5-0-3-5---6-5-|



D|---------|              D|--------------|
A|---------|              A|--------------|
F|---------|              F|--------------|
C|---------|play x2 then: C|--------------| 
G|-0-3-5-0-|              G|--------5-----|
C|-0-3-5-0-|              C|--0-3-5---6-5-|


D|---------|              D|--------------|
A|---------|              A|--------------|
F|---------|              F|--------------|
C|---------|play x3 then: C|--------------| play x2
G|-0-3-5-0-|              G|--------5-----|
C|-0-3-5-0-|              C|--0-3-5---6-5-|



D|----------------------|
A|----------------------|
F|----------------------|
C|----------------------|play x24
G|----------------------|
C|-0-0-0-0--0--0--0-0--0|









I see my reflection in the window
It looks different, so different than what you see
Projecting judgement on the world
This house is clean babe
This house is clean

Am I who I think I am?
Am I who I think I am?
Am I who I think I am?
I look out my window and see it's gone wrong
Court is in session and I slam my gavel down!

I'm judge and I'm jury and I'm executioner too
I'm judge and I'm jury and I'm executioner too

Projector, Protector, Rejector, Infector
Projector, Rejector, Infector
Injector, Defector, Rejector

I see my reflection in the window
This window clean inside, dirty on the out
I'm looking different than me
This house is clean babe!
This house is clean

Am I who I think I am?
Am I who I think I am?
Oh, Am I who I think I am?
I look out my window and see it's gone wrong
My court is in session and now I slam my gavel down!

I'm judge and I'm jury and I'm executioner too
I'm judge and I'm jury and I'm executioner too

Projector, Protector, Rejector, Infector
Projector, Rejector, Infector
Injector, Defector, Rejector, Detector

I'm judge and I'm jury and I'm executioner too
I'm judge and I'm jury and I'm executioner too

Projector, Protector, Rejector, Infector
Projector, Rejector, Infector
Injector, Defector, Rejector

I drink from the cup of denial
I'm judging the world from my throne
I drink from the cup of denial
I'm judging the world from my throne, Yeah











---------------


version 2 







Tuning: C# Tuning (C#, G#, C#, F#, A#, D#)





INTRO
|----------------------------|-----|----------------------------|-----|
|----------------------------|--R--|----------------------------|--R--|
|----------------------------|--E--|----------------------------|--E--|
|----x-x-x-x-x--x--x-x--x----|--S--|----x-x-x-x-x--x--x-x--x----|--S--|
|----x-x-x-x-x--x--x-x--x----|--T--|----x-x-x-x-x--x--x-x--x----|--T--|
|----x-x-x-x-x--x--x-x--x----|-----|----x-x-x-x-x--x--x-x--x----|-----|

PM Riff(x4)
|----------------------------|
|----------------------------|
|----------------------------|
|----x-x-x-x-x--x--x-x--x----|
|----x-x-x-x-x--x--x-x--x----|
|----x-x-x-x-x--x--x-x--x----|

Verse Riff(Whole thing x2)
|x5.....................................|6th time..............|
|---------------------------------------|----------------------|
|---------------------------------------|----------------------|
|---------------------------------------|----------------------|
|---------------------------------------|----------------------|
|-------------------------------5-------|--3~~--3-3/5~~5~~5~---|
|--0--3--5---0--3--5---0--3--5----6--5--|--3~~--3-3/5~~5~~5~---|
(The first note of this is played right on the last mute of the intro)

THE BUILD (Consists of the next 4 lines of tab up to the end of the "gavel" part)
(x2)
|----------------------------------------|
|----------------------------------------|
|----------------------------------------|
|-------------------------------7--------|
|--0--3--5---0--3--5---0--3--5--5--6--5--|
|--0--3--5---0--3--5---0--3--5-----6--5--|
   pm..................................|

(x2 - The mutes in this are just with the snare and I dunno how u'd interpret them)
|-------------------------------------------|
|-------------------------------------------|
|-------------------------------------------|
|--0--3--5---x--x--x-x-x-x---0--3--5--6br~~~|
|--0--3--5---x--x--x-x-x-x---0--3--5--6br~~~|
|--0--3--5---x--x--x-x-x-x---0--3--5--6br~~~|

Then... (OK... this is it... I hope...)
|------------------------------|------------------------------|
|------------------------------|------------------------------|
|------------------------------|------------------------------|
|--0--3--5------0--3--5--6br~~~|--3--6--8--3---3--6--8--9br~~~|
|--0--3--5------0--3--5--6br~~~|--3--6--8--3---3--6--8--9br~~~|
|--0--3--5------0--3--5--6br~~~|--3--6--8--3---3--6--8--9br~~~|

|----------------------------------|
|----------------------------------|
|----------------------------------|   Gavel part with the pm'd part...
|--3--6--8--3---3--5--6---3--5--6--|
|--3--6--8--3---3--5--6---3--5--6--|
|--3--6--8--3---3--5--6---3--5--6--|
                pm...............|

Main riff (x2)
|---------------------------------------|
|---------------------------------------|
|---------------------------------------|
|---------------------------------------|
|-------------------------------5-------|
|--0--3--5---0--3--5---0--3--5----6--5--|

Clean Riff (x2)
|---------------------------------------------------------------|
|---------------------------------------------------------------|
|---------------------------------------------------------------|
|--7------7-------5/8-7~-5/7------------------------------------|
|-------8----10-------------------------------------------------|
|---------------------------------------------------------------|
| Bass part... clean bassy guitar
|---------------------------------------------------------------|
|---------------------------------------------------------------|
|---------------------------------------------------------------|
|---------------------------------------------------------------|
|-------------------------------------------------------7-------|
|--------------------------0--3--5---0--3--5---0--3--5----6--5--|

Projector riff
|--------------------------------------------------------------|
|--------------------------------------------------------------|
|--------------------------------------------------------------|
|--0--3--5--0----0--3--5--0----0--3--5-----6--5----0--3--5--0--|
|--0--3--5--0----0--3--5--0----0--3--5--5--6--5----0--3--5--0--|
|--0--3--5--0----0--3--5--0----0--3--5-----6--5----0--3--5--0--|

|--------------------------------------------------------------------|
|--------------------------------------------------------------------|
|--------------------------------------------------------------------|
|--0--3--5--0----0--3--5--0----0--3--5-----6--5----0--3--5-----6--5--|
|--0--3--5--0----0--3--5--0----0--3--5--5--6--5----0--3--5--5--6--5--|
|--0--3--5--0----0--3--5--0----0--3--5-----6--5----0--3--5-----6--5--|

PM riff (x2)
Verse Riff (x1)
The Build (x1)
Main Riff (x2)
Clean Riff (x2)
Projector riff (x1)
PM Riff (one guitar - x4)
PM Riff (2 Guitars - x14)
Main Riff (x2)
Clean Riff (x2)
Projector Riff (x1)
PM Riff (One guitar - x2)
PM Riff (2 Guitars - x22)










I see my reflection in the window
It looks different, so different than what you see
Projecting judgement on the world
This house is clean babe
This house is clean

Am I who I think I am?
Am I who I think I am?
Am I who I think I am?
I look out my window and see it's gone wrong
Court is in session and I slam my gavel down!

I'm judge and I'm jury and I'm executioner too
I'm judge and I'm jury and I'm executioner too

Projector, Protector, Rejector, Infector
Projector, Rejector, Infector
Injector, Defector, Rejector

I see my reflection in the window
This window clean inside, dirty on the out
I'm looking different than me
This house is clean babe!
This house is clean

Am I who I think I am?
Am I who I think I am?
Oh, Am I who I think I am?
I look out my window and see it's gone wrong
My court is in session and now I slam my gavel down!

I'm judge and I'm jury and I'm executioner too
I'm judge and I'm jury and I'm executioner too

Projector, Protector, Rejector, Infector
Projector, Rejector, Infector
Injector, Defector, Rejector, Detector

I'm judge and I'm jury and I'm executioner too
I'm judge and I'm jury and I'm executioner too

Projector, Protector, Rejector, Infector
Projector, Rejector, Infector
Injector, Defector, Rejector

I drink from the cup of denial
I'm judging the world from my throne
I drink from the cup of denial
I'm judging the world from my throne, Yeah









---------------


version 3






Tuning: 1/2 step down all strings

Intro:
G#|---------------------------------------------------------------------------|
A#|---------------------------------------------------------------------------|
F#|---------------------------------------------------------------------------|
C#|---------------------------------------------------------------------------|
G#|---------------------------------------------------------------------------|
D#|-00000-0-0-0-0-------------------------------------------------------------|

Main riff:
G#|---------------------------------------------------------------------------|
A#|---------------------------------------------------------------------------|
F#|---------------------------------------------------------------------------|
C#|---------------------------------------------------------------------------|
G#|-------------------7-------------------------------------------------------|
D#|-0-3-5-0-3-5-0-3-5---6-5---------------------------------------------------|

"This house is clean,baby..."
G#|---------------------------------------------------------------------------|
A#|---------------------------------------------------------------------------|
F#|---------------------------------------------------------------------------|
C#|-5-----7-------------------------------------------------------------------|
G#|-5-----7-------------------------------------------------------------------|
D#|-3-----5-------------------------------------------------------------------|

"Am I who I think I am?"
G#|---------------------------------------------------------------------------|
A#|---------------------------------------------------------------------------|
F#|---------------------------------------------------------------------------|
C#|-2--5--7--2----2--5--7-----------------------------------------------------|
G#|-2--5--7--2----2--5--7-----------------------------------------------------|
D#|-0--3--5--0----0--3--5---5h6p5~~-------------------------------------------|

"I'm judge and I'm juri..."
G#|---------------------------------------------------------------------------|
A#|---------------------------------------------------------------------------|
F#|---------------------------------------------------------------------------|
C#|-9-----9-7--10-9-----------------------------------------------------------|
G#|-7--10---5-------------------------7---------------------------------------|
D#|-----------------0-3-5-0-3-5-0-3-5---6-5-----------------------------------|

"Look at my window..."
G#|---------------------------------------------------------------------------|
A#|---------------------------------------------------------------------------|
F#|---------------------------------------------------------------------------|
C#|---------------------------------------------------------------------------|
G#|-4----7-9--4----4-7-9------------------------------------------------------|
D#|-2----5-7--2----2-5-7--8h9p8-----------------------------------------------|

",,,slam my gravel down!"
G#|---------------------------------------------------------------------------|
A#|---------------------------------------------------------------------------|
F#|---------------------------------------------------------------------------|
C#|---------------------------------------------------------------------------|
G#|-4-7-9-4-7-9---------------------------------------------------------------|
D#|-2-5-7-2-5-7---------------------------------------------------------------|

"I... I... I..."
G#|---------------------------------------------------------------------------|
A#|---------------------------------------------------------------------------|
F#|---------------------------------------------------------------------------|
C#|-x-x-x-x-x---x-x--x-x------------------------------------------------------|
G#|-x-x-x-x-x---x-x--x-x------------------------------------------------------|
D#|-x-x-x-x-x---x-x--x-x------------------------------------------------------|











I see my reflection in the window
It looks different, so different than what you see
Projecting judgement on the world
This house is clean babe
This house is clean

Am I who I think I am?
Am I who I think I am?
Am I who I think I am?
I look out my window and see it's gone wrong
Court is in session and I slam my gavel down!

I'm judge and I'm jury and I'm executioner too
I'm judge and I'm jury and I'm executioner too

Projector, Protector, Rejector, Infector
Projector, Rejector, Infector
Injector, Defector, Rejector

I see my reflection in the window
This window clean inside, dirty on the out
I'm looking different than me
This house is clean babe!
This house is clean

Am I who I think I am?
Am I who I think I am?
Oh, Am I who I think I am?
I look out my window and see it's gone wrong
My court is in session and now I slam my gavel down!

I'm judge and I'm jury and I'm executioner too
I'm judge and I'm jury and I'm executioner too

Projector, Protector, Rejector, Infector
Projector, Rejector, Infector
Injector, Defector, Rejector, Detector

I'm judge and I'm jury and I'm executioner too
I'm judge and I'm jury and I'm executioner too

Projector, Protector, Rejector, Infector
Projector, Rejector, Infector
Injector, Defector, Rejector

I drink from the cup of denial
I'm judging the world from my throne
I drink from the cup of denial
I'm judging the world from my throne, Yeah











| /  slide up
| \  slide down
| h  hammer-on
| p  pull-off
| ~  vibrato
| +  harmonic
| x  Mute note







---------------


version 4







| /  slide up
| \  slide down
| h  hammer-on
| p  pull-off
| ~  vibrato
| +  harmonic
| x  Mute note

Tuning: 1 1/2 steps down (C#,F#,B#,D#,G#,c#)

The 6 drum sets start off

Riff 1
c#|---------------------------------------------------------------------------|
G#|---------------------------------------------------------------------------|
D#|---------------------------------------------------------------------------|
B#|---------------------------------------------------------------------------|
F#|------------------------------------------7--------------------------------|
C#|--0--3--5---0--3--5---0--3--5---0--3--5------6--5--------------------------|

Riff 2
c#|---------------------------------------------------------------------------|
G#|---------------------------------------------------------------------------|
D#|---------------------------------------------------------------------------|
B#|--5-------5---5/7---7---7--------------------------------------------------|
F#|--5-------5---5/7---7---7--------------------------------------------------|
C#|--3-------3---3/5---5---5--------------------------------------------------|

Riff 3
c#|---------------------------------------------------------------------------|
G#|---------------------------------------------------------------------------|
D#|---------------------------------------------------------------------------|
B#|---------------------------------------------------------------------------|
F#|------------------------------------------7--------------------------------|
C#|--0--3--5---0--3--5---0--3--5---0--3--5------6--5--------------------------|
     x  x  x   x  x  x   x  x  x   x  x  x   x  x  x

Bridge
c#|---------------------------------------------------------------------------|
G#|---------------------------------------------------------------------------|
D#|---------------------------------------------------------------------------|
B#|--2--5--7--2----2--5--7--8~------------------------------------------------|
F#|--2--5--7--2----2--5--7--8~------------------------------------------------|
C#|--0--3--5--0----0--3--5--6~------------------------------------------------|

Bridge 2
c#|---------------------------------------------------------------------------|
G#|---------------------------------------------------------------------------|
D#|---------------------------------------------------------------------------|
B#|--5--8-10--5----5--8-10-11~---5--8-10--5---5--5-10----5---8--10------------|
F#|--5--8-10--5----5--8-10-11~---5--8-10--5---5--5-10----5---8--10------------|
C#|--3--6--8--3----3--6--8--9~---3--6--8--3---3--6--8----3---6---8------------|
                                              x  x  x    x   x   x
RIFF 4
c#|---------------------------------------------------------------------------|
G#|---------------------------------------------------------------------------|
D#|---4---------4--2------5--4------------------------------------------------|
B#|---2------5--x--0----------------------------------------------------------|
F#|----------x--x--------------------------------------------7----------------|
C#|----------0--3-----------------0--3--5--0--3--5--0--3--5-----6--5----------|

RIFF 5
c#|---------------------------------------------------------------------------|
G#|---------------------------------------------------------------------------|
D#|--------------------------9------------------------------------------------|
B#|--2-5-7-2--2-5-7-2--2-5-7-9-8-7-2-5-7-2------------------------------------|
F#|--2-5-7-2--2-5-7-2--2-5-7-7-8-7-2-5-7-2------------------------------------|
C#|--0-3-5-0--0-3-5-0--0-3-5---6-5-0-3-5-0------------------------------------|

c#|---------------------------------------------------------------------------|
G#|---------------------------------------------------------------------------|
D#|--------------------------9-----------9------------------------------------|
B#|--2-5-7-2--2-5-7-2--2-5-7-9-8-7-2-5-7-9-8-7--------------------------------|
F#|--2-5-7-2--2-5-7-2--2-5-7-7-8-7-2-5-7-7-8-7--------------------------------|
C#|--0-3-5-0--0-3-5-0--0-3-5---6-5-0-3-5---6-5--------------------------------|

Outro
c#|---------------------------------------------------------------------------|
G#|---------------------------------------------------------------------------|
D#|---------------------------------------------------------------------------|
B#|---2-2-2-2-2-2--2-2--2-----------------------------------------------------|
F#|---2-2-2-2-2-2--2-2--2-----------------------------------------------------|
C#|---0-0-0-0-0-0--0-0--0-----------------------------------------------------|


[RIFF 1] X5
[RIFF 2]
[RIFF 1] X4
I see my reflection in the window
It looks different, so different than what you see
Projecting judgment on the world

[RIFF 2]
This house is clean babe
This house is clean

[RIFF 3] X2
[BRIDGE] X3
Am I who I think I am?
Am I who I think I am?
Am I who I think I am?

[BRDGE 2]X1
Look out my window and see it's gone wrong
Court is in session and I slam my gavel down

[RIFF 1] X2
[RIFF 4] X2
I'm judge and I'm jury and I'm executioner too
I'm judge and I'm jury and I'm executioner too

[RIFF 5]
Projector
Protector
Rejector
Infector
Projector
Rejector
Infector
Injector
Defector
Rejector

[OUTRO] X2
[RIFF 1] X4
I see my reflection in the window
This window clean inside, dirty on the out
I'm looking different than me

[RIFF 2]
This house is clean babe
This house is clean

[RIFF 3] X2
[BRIDGE} X3
Am I who I think I am?
Am I who I think I am?
Oh am I who I think I am?

[BRDGE 2}
I look my window and see it's gone wrong
My court is in session and now I slam my gavel down

[RIFF 1] X2
[RIFF 4] X2
I'm judge and I'm jury and I'm executioner too
I'm judge and I'm jury and I'm executioner too

[RIFF 5]
Projector
Protector
Rejector
Infector
Projector
Rejector
Infector
Injector
Defector
Rejector
Dejector

[OUTRO] X18
[RIFF 1] X2
[RIFF 4] X2
I'm judge and I'm jury and I'm executioner too
Oh I'm judge and I'm jury and I'm executioner too

[RIFF 5]
Projector
Protector
Rejector
Infector
Projector
Rejector
Infector
Injector
Defector
Rejector

[OUTRO] X24
I drink from the cup of denial
I'm judging the world from my throne
I drink from the cup of denial
I'm judging the world from my throne












---------------


version 5





TUNING: C#-G#-C#-F#-A#-D#

RIFF A (0:00)
d#------------------------------------|
A#------------------------------------|
F#------------------------------------|
C#----x--x--x--x--x----x----x--x--x---|   Play 6 times
G#----0--0--0--0--0----0----0—-0--0---|
C#----0--0--0--0--0----0----0--0--0---|

RIFF B (0:14)
d#-----------------------------------------|
A#-----------------------------------------|
F#-----------------------------------------|
C#-----------------------------------------|   Play 5 times
G#------------------------------5----------|
C#---0--3--5--0--3--5--0--3--5-----6--5----|

RIFF B2 (0:33)
d#---------------------------|
A#---------------------------|
F#---------------------------|
C#---3----0-3-0--3h5--5-5-5--|   Play once
G#---3----0-3-0—-3h5--5-5-5--|
C#---3----0-3-0--3h5--5-5-5--|

Play RIFF B  4 times  
Play RIFF B2 once     (‘This house..’)

RIFF C: Slower and Palm Muted (0:55)
d#-----------------------------------------|
A#-----------------------------------------|
F#-----------------------------------------|
C#-----------------------------------------|   Play 2 times
G#---0--3--5--0--3--5--0--3--5--5--6--5----|
C#---0--3--5--0--3--5--0--3--5-----6--5----|

RIFF D (1:03)
d#-------------------------------------------|
A#-------------------------------------------|
F#-------------------------------------------|
C#---0--3--5--0--x-x-x-x--0--3--5------------|   Play 3 times
G#---0--3--5--0--x-x-x-x--0--3--5------------|   
C#---0--3--5--0--x-x-x-x--0--3--5—-6h9p6-----|  
    (‘Am I who...’)

RIFF E1 (1:14)
d#----------------------------------|
A#----------------------------------|
F#----------------------------------|
C#---3--6--8--3----3--6--8----------|   play once
G#---3--6--8--3----3--6--8----------|
C#---3--6--8--3—---3--6--8—9h10p9---|
    (‘Look out..’)

RIFF E2
d#-------------------------------------|
A#-------------------------------------|
F#-------------------------------------|
C#---3--6--8--3----3--6--8--3--6--8----|   play once
G#---3--6--8--3----3--6--8--3--6--8----|
C#---3--6--8--3—---3--6--8—-3—-6--8----|


RIFF B 2 times

RIFF F (1:29)
d#-----------------------------------------------------------------|
A#-----------------------------------------------------------------|
F#-----------------------------------------------------------------|
C#---7-----3--7--5-----8--7----------------------------------------| Play 2 times
G#---------0--0--3-------------------------------------------5-----|
C#-----------------------------0--3--5--0--3--5--0--3--5-----6—-5--|
                                   (‘I’m judging ...’)

RIFF G1 (1:44)
d#---------------|
A#---------------|
F#---------------|
C#---0--3—-5--0--|   play 2 times
G#---0--3--5--0--|
C#---0--3--5--0—-|
   (‘PROJECTOR’)

RIFF G2
d#------------------------|
A#------------------------|
F#------------------------|
C#---0--3--5--12--6--5----|   play once
G#---0--3--5--12--6--5----|
C#---0--3--5—-12--6--5----|

RIFF G1 3 times
ROFF G2 2 times

RIFF A   2 times
RIFF B   4 times
RIFF B2    once
RIFF C   2 times
RIFF D   3 times
RIFF E1    once
RIFF E2    once
RIFF B   2 times
RIFF F   2 times
RIFF G1  2 times
RIFF G2    once
RIFF G1  3 times
RIFF G2  2 times

RIFF A  18 times
RIFF B   2 times
RIFF F   2 times

RIFF G1  2 times
RIFF G2    once
RIFF G1  3 times
RIFF G2  2 times

RIFF A  24 times









I see my reflection in the window
It looks different, so different than what you see
Projecting judgement on the world
This house is clean babe
This house is clean

Am I who I think I am?
Am I who I think I am?
Am I who I think I am?
I look out my window and see it's gone wrong
Court is in session and I slam my gavel down!

I'm judge and I'm jury and I'm executioner too
I'm judge and I'm jury and I'm executioner too

Projector, Protector, Rejector, Infector
Projector, Rejector, Infector
Injector, Defector, Rejector

I see my reflection in the window
This window clean inside, dirty on the out
I'm looking different than me
This house is clean babe!
This house is clean

Am I who I think I am?
Am I who I think I am?
Oh, Am I who I think I am?
I look out my window and see it's gone wrong
My court is in session and now I slam my gavel down!

I'm judge and I'm jury and I'm executioner too
I'm judge and I'm jury and I'm executioner too

Projector, Protector, Rejector, Infector
Projector, Rejector, Infector
Injector, Defector, Rejector, Detector

I'm judge and I'm jury and I'm executioner too
I'm judge and I'm jury and I'm executioner too

Projector, Protector, Rejector, Infector
Projector, Rejector, Infector
Injector, Defector, Rejector

I drink from the cup of denial
I'm judging the world from my throne
I drink from the cup of denial
I'm judging the world from my throne, Yeah










---------------


version 6







Dropped C# Tuning

C# G# C# F# A# D#

                       
D#|----------------------|
A#|----------------------|
F#|----------------------|
C#|----------------------| x 6
G#|----------------------|
C#|-X-X-X-X--X--X--X-X--X|


                          
D#|-------------------------|
A#|-------------------------|
F#|-------------------------|
C#|-------------------------| x 5
G#|-------------------5-----| 
C#|-0-3-5-0-3-5-0-3-5---6-5-|


D#|----------------------|
A#|----------------------|
F#|----------------------|
C#|----------------------| x 1
G#|-3----0-3-0--3--/5---5|
C#|-3----0-3-0--3--/5---5|

D#|-------------------------|
A#|-------------------------|
F#|-------------------------|
C#|-------------------------| x 4 
G#|-------------------5-----|
C#|-0-3-5-0-3-5-0-3-5---6-5-|

D#|----------------------|
A#|----------------------|
F#|----------------------|
C#|----------------------| x 1
G#|-3----0-3-0--3--/5---5|
C#|-3----0-3-0--3--/5---5|

D#|-------------------------|
A#|-------------------------|
F#|-------------------------|
C#|-------------------------| x 2
G#|-------------------5-----|
C#|-0-3-5-0-3-5-0-3-5---6-5-|


D#|-------------------------|
A#|-------------------------|
F#|-------------------------|
C#|-------------------------| x 3
G#|-------------------------|
C#|-0-3-5-0-------0-3-5-6~~~|
-
D#|-------------------------------------------------|
A#|-------------------------------------------------|
F#|-------------------------------------------------|
C#|-------------------------------------------------| x 1
G#|-3-6-8-3-------3-6-8-------3-6-8-3---------------|
C#|-3-6-8-3-------3-6-8-9~~---3-6-8-3---0-3-5-0-3-5-|

D#|-------------------------|
A#|-------------------------|
F#|-------------------------|
C#|-------------------------| x 2
G#|-------------------5-----|
C#|-0-3-5-0-3-5-0-3-5---6-5-|

             D#|--------------------------------------------------------------|
             A#|--------------------------------------------------------------|
             F#|--------------------------------------------------------------|
Palm-muted   C#|---------------12---10----------------------------------------|
             G#|-12-------12---12---10---12/13-\12----------------------5-----|
             C#|----------15--------------------------0-3-5-0-3-5-0-3-5---6-5-|
 x 2 (Not so sure about this part, please correct it you see any faults)
  


D#|---------|              D#|--------------|
A#|---------|              A#|--------------|
F#|---------|              F#|--------------|
C#|---------| x 2          C#|--------------| x1
G#|-0-3-5-0-|              G#|--------5-----|
C#|-0-3-5-0-|              C#|--0-3-5---6-5-|


D#|---------|              D#|--------------|
A#|---------|              A#|--------------|
F#|---------|              F#|--------------|
C#|---------| x 3          C#|--------------| x 2
G#|-0-3-5-0-|              G#|--------5-----|
C#|-0-3-5-0-|              C#|--0-3-5---6-5-|

D#|----------------------|
A#|----------------------|
F#|----------------------|
C#|----------------------| x 2
G#|----------------------|
C#|-0-0-0-0--0--0--0-0--0|

D#|-------------------------|
A#|-------------------------|
F#|-------------------------|
C#|-------------------------| x 4 
G#|-------------------5-----|
C#|-0-3-5-0-3-5-0-3-5---6-5-|

D#|----------------------|
A#|----------------------|
F#|----------------------|
C#|----------------------| x 1
G#|-3----0-3-0--3--/5---5|
C#|-3----0-3-0--3--/5---5|


D#|-------------------------|
A#|-------------------------|
F#|-------------------------|
C#|-------------------------| x 2
G#|-------------------5-----|
C#|-0-3-5-0-3-5-0-3-5---6-5-|


D#|-------------------------|
A#|-------------------------|
F#|-------------------------|
C#|-------------------------| x 3
G#|-------------------------|
C#|-0-3-5-0-------0-3-5-6~~~|
-
D#|-------------------------------------------------|
A#|-------------------------------------------------|
F#|-------------------------------------------------|
C#|-------------------------------------------------| x 1
G#|-3-6-8-3-------3-6-8-------3-6-8-3---------------|
C#|-3-6-8-3-------3-6-8-9~~---3-6-8-3---0-3-5-0-3-5-|

D#|-------------------------|
A#|-------------------------|
F#|-------------------------|
C#|-------------------------| x 2
G#|-------------------5-----|
C#|-0-3-5-0-3-5-0-3-5---6-5-|

             D#|--------------------------------------------------------------|
             A#|--------------------------------------------------------------|
             F#|--------------------------------------------------------------|
Palm-muted   C#|---------------12---10----------------------------------------| x 2
             G#|-12-------12---12---10---12/13-\12----------------------5-----|
             C#|----------15--------------------------0-3-5-0-3-5-0-3-5---6-5-|



D#|---------|              D#|--------------|
A#|---------|              A#|--------------|
F#|---------|              F#|--------------|
C#|---------| x 2          C#|--------------| x1
G#|-0-3-5-0-|              G#|--------5-----|
C#|-0-3-5-0-|              C#|--0-3-5---6-5-|


D#|---------|              D#|--------------|
A#|---------|              A#|--------------|
F#|---------|              F#|--------------|
C#|---------| x 3          C#|--------------| x 2
G#|-0-3-5-0-|              G#|--------5-----|
C#|-0-3-5-0-|              C#|--0-3-5---6-5-|


D#|----------------------|
A#|----------------------|
F#|----------------------|
C#|----------------------| x 18
G#|----------------------|
C#|-0-0-0-0--0--0--0-0--0|

D#|-------------------------|
A#|-------------------------|
F#|-------------------------|
C#|-------------------------| x 2
G#|-------------------5-----|
C#|-0-3-5-0-3-5-0-3-5---6-5-|
           
             D#|--------------------------------------------------------------|
             A#|--------------------------------------------------------------|
             F#|--------------------------------------------------------------|
Palm-muted   C#|---------------12---10----------------------------------------| x 2
             G#|-12-------12---12---10---12/13-\12----------------------5-----|
             C#|----------15--------------------------0-3-5-0-3-5-0-3-5---6-5-|




D#|---------|              D#|--------------|
A#|---------|              A#|--------------|
F#|---------|              F#|--------------|
C#|---------| x 2          C#|--------------| x1
G#|-0-3-5-0-|              G#|--------5-----|
C#|-0-3-5-0-|              C#|--0-3-5---6-5-|


D#|---------|              D#|--------------|
A#|---------|              A#|--------------|
F#|---------|              F#|--------------|
C#|---------| x 3          C#|--------------| x 2
G#|-0-3-5-0-|              G#|--------5-----|
C#|-0-3-5-0-|              C#|--0-3-5---6-5-|



D#|----------------------|
A#|----------------------|
F#|----------------------|
C#|----------------------| x 24
G#|----------------------|
C#|-0-0-0-0--0--0--0-0--0|









I see my reflection in the window
It looks different, so different than what you see
Projecting judgement on the world
This house is clean babe
This house is clean

Am I who I think I am?
Am I who I think I am?
Am I who I think I am?
I look out my window and see it's gone wrong
Court is in session and I slam my gavel down!

I'm judge and I'm jury and I'm executioner too
I'm judge and I'm jury and I'm executioner too

Projector, Protector, Rejector, Infector
Projector, Rejector, Infector
Injector, Defector, Rejector

I see my reflection in the window
This window clean inside, dirty on the out
I'm looking different than me
This house is clean babe!
This house is clean

Am I who I think I am?
Am I who I think I am?
Oh, Am I who I think I am?
I look out my window and see it's gone wrong
My court is in session and now I slam my gavel down!

I'm judge and I'm jury and I'm executioner too
I'm judge and I'm jury and I'm executioner too

Projector, Protector, Rejector, Infector
Projector, Rejector, Infector
Injector, Defector, Rejector, Detector

I'm judge and I'm jury and I'm executioner too
I'm judge and I'm jury and I'm executioner too

Projector, Protector, Rejector, Infector
Projector, Rejector, Infector
Injector, Defector, Rejector

I drink from the cup of denial
I'm judging the world from my throne
I drink from the cup of denial
I'm judging the world from my throne, Yeah











---------------


version 7







e---------------------------------------------------------
B---------------------------------------------------------
G--------------------------------------------------------- Repeat 3x 
D---------------------------------------------------------
A---------------------------------------------------------
E--0-4-6--0-4-6--0-4-6--8-7-6--0-4-6--0-4-6--0-4-6--8-7-6-

then theres a little turn-around thing then u play it again.
Heres the part where it gets heavier.

e-----------------------------
B-----------------------------
G-----------------------------
D-0-6-8--0-6-8--0-6-8--101010- Repeat 2x and every time that it slows down and 
A-0-6-8--0-6-8--0-6-8--101010- gets heavy.
E-0-4-8--0-4-8--0-4-8--8-7-6--

Then theres the slow part where Jaymz says, "im judging, im jury, and im exocutioner too."

e-----------------------------
B-----------------------------
G-----------------------------
D-----------------------------
A-----------------------------
E-4-3-4-2-3h4-4-4-------------









I see my reflection in the window
It looks different, so different than what you see
Projecting judgement on the world
This house is clean babe
This house is clean

Am I who I think I am?
Am I who I think I am?
Am I who I think I am?
I look out my window and see it's gone wrong
Court is in session and I slam my gavel down!

I'm judge and I'm jury and I'm executioner too
I'm judge and I'm jury and I'm executioner too

Projector, Protector, Rejector, Infector
Projector, Rejector, Infector
Injector, Defector, Rejector

I see my reflection in the window
This window clean inside, dirty on the out
I'm looking different than me
This house is clean babe!
This house is clean

Am I who I think I am?
Am I who I think I am?
Oh, Am I who I think I am?
I look out my window and see it's gone wrong
My court is in session and now I slam my gavel down!

I'm judge and I'm jury and I'm executioner too
I'm judge and I'm jury and I'm executioner too

Projector, Protector, Rejector, Infector
Projector, Rejector, Infector
Injector, Defector, Rejector, Detector

I'm judge and I'm jury and I'm executioner too
I'm judge and I'm jury and I'm executioner too

Projector, Protector, Rejector, Infector
Projector, Rejector, Infector
Injector, Defector, Rejector

I drink from the cup of denial
I'm judging the world from my throne
I drink from the cup of denial
I'm judging the world from my throne, Yeah











------------
Want More Free Lessons?

Browse through the Archive!

PROBLEM WITH THIS TAB? | VIEW FULL SCREEN | PRINT

ProAudioStar.com Lowest Prices, Live Chat, Great ServiceLifeLock.com