Lessons/Tabs are sorted alphabetically.

Tab Vault

PROBLEM WITH THIS TAB?   VIEW FULL SCREEN   PRINT

53rd And 3rd

Metallica
53rd And 3rd by Metallica






               53rd And 3rd








Tuning:Standard
(E-A-D-G-B-e)

.=palm mute


Part 1  (Intro/Verse/Chorus)


e----------------------------|
B----------------------------|
G------------------7-7-------|
D----------2-------7-7--7-7--|
A--2-2-2-2-2--2-2--5-5--7-7--|
E--0-0-0-0-0--0-0-------5-5--|
   . . . .    . .


Part 2   (Chorus)


e----------------------------------------------------------------------|
B----------------------------------------------------------------------|
G--7-7-7-7-7-7-7-7-----------------------------------------------------|
D--7-7-7-7-7-7-7-7--7-7-7-7-7-7-7-7--5-5-5-5-5-5-5-5--7-7-7-7-7-7-7-7--|
A--5-5-5-5-5-5-5-5--7-7-7-7-7-7-7-7--5-5-5-5-5-5-5-5--7-7-7-7-7-7-7-7--|
E-------------------5-5-5-5-5-5-5-5--3-3-3-3-3-3-3-3--5-5-5-5-5-5-5-5--|


Part 3 


 Then I took out my razor blade
e-------------------------------------|------------------------------------|
B-------------------------------------|------------------------------------|
G--4-4-4-4--2--2-2---4-4-4-4--2--2-2--|-----------2--2-2-----------2--2-2--|
D--4-4-4-4--2--2-2---4-4-4-4--2--2-2--|--5-5-5-5--2--2-2--5-5-5-5--2--2-2--|
A--2-2-2-2--0--0-0---2-2-2-2--0--0-0--|--5-5-5-5--0--0-0--5-5-5-5--0--0-0--|
E-------------------------------------|--3-3-3-3----------3-3-3-3----------|

Part 4  (2nd Chorus) 

e----------------------------------------------------------------------|
B----------------------------------------------------------------------|
G-------------------4-4-4-4-4-4-4-4--2-2-2-2-2-2-2-2--4-4-4-4-4-4-4-4--|
D--2-2-2-2-2-2-2-2--4-4-4-4-4-4-4-4--2-2-2-2-2-2-2-2--4-4-4-4-4-4-4-4--|
A--2-2-2-2-2-2-2-2--2-2-2-2-2-2-2-2--0-0-0-0-0-0-0-0--2-2-2-2-2-2-2-2--|
E--0-0-0-0-0-0-0-0-----------------------------------------------------|










If you think you can, well come on man
I was a green beret in viet nam
No more of your fairy stories
cause I got my other worries.
53rd and 3rd
Standing on the street
53rd and 3rd
Im tryin to turn a trick
53rd and 3rd
Youre the one they never pick
53rd and 3rd
Dont make you feel sick ? 
Then I took out my razor blade
Then I did what God forbade
Now the cops are after me
But I proved that Im no sissy.









---------------


version 2 









Tuning - Standard; E,A,D,G,B,e.

e|---------------|--------------|
B|---------------|--------------|
G|---------------|--------------|
D|-------------2~|--7--7--------|
A|---------2-2-2~|--5--5--7--7--|
E|-0-0-0-0-0-0-0~|--------5--5--|x8

e|---------------------|---------------------|
B|---------------------|---------------------|
G|-7----7--------------|---------------------|
D|-7----7----7----7----|-5----5----7----7----|
A|-5----5----7----7----|-5----5----7----7----|
E|-----------5----5----|-3----3----5----5----|x4

e|---------------|--------------|
B|---------------|--------------|
G|---------------|--------------|
D|-------------2~|--7--7--------|
A|---------2-2-2~|--5--5--7--7--|
E|-0-0-0-0-0-0-0~|--------5--5--|x4

e|---------------------|---------------------|
B|---------------------|---------------------|
G|-7----7--------------|---------------------|
D|-7----7----7----7----|-5----5----7----7----|
A|-5----5----7----7----|-5----5----7----7----|
E|-----------5----5----|-3----3----5----5----|x4

e|------------------|---------------------|-----------------|-------------------|
B|*-----------------|---------------------|-----------------|------------------*|
G|------------------|-2----2----2----2----|-----------------|-2----2----2----2--|
D|--4-4-4-4-4-4-4-4-|-2----2----2----2----|-----------------|-2----2----2----2--|
A|*-2-2-2-2-2-2-2-2-|-0----0----0----0----|-5-5-5-5-5-5-5-5-|-0----0----0----0-*|
E|------------------|---------------------|-3-3-3-3-3-3-3-3-|-------------------|x2

e|---------------------|---------------------|
B|---------------------|---------------------|
G|-9----9--------------|-----------9----9----|
D|-9----9----9----9----|-7----7----9----9----|
A|-7----7----9----9----|-7----7----7----7----|
E|-----------7----7----|-5----5--------------|x4

e|---------------|--------------|
B|---------------|--------------|
G|---------------|--------------|
D|-------------2~|--7--7--------|
A|---------2-2-2~|--5--5--7--7--|
E|-0-0-0-0-0-0-0~|--------5--5--|x8

e|-----------|
B|-----------|
G|-----------|
D|---------2~|
A|---------2~|
E|-0-0-0-0-0~|

That is exactly in order.







If you think you can, well come on man
I was a green beret in viet nam
No more of your fairy stories
cause I got my other worries.
53rd and 3rd
Standing on the street
53rd and 3rd
Im tryin to turn a trick
53rd and 3rd
Youre the one they never pick
53rd and 3rd
Dont make you feel sick ? 
Then I took out my razor blade
Then I did what God forbade
Now the cops are after me
But I proved that Im no sissy.










----------
Want More Free Lessons?

Browse through the Archive!

PROBLEM WITH THIS TAB? | VIEW FULL SCREEN | PRINT

Kreyos preorder"