Lessons/Tabs are sorted alphabetically.

Tab Vault

PROBLEM WITH THIS TAB?   VIEW FULL SCREEN   PRINT

All Nightmare Long

Metallica
All Nightmare Long by Metallica






                  All Nightmare Long








Tuning: Drop D (D-A-D-G-B-E)

Gtr. 1 Clean
e|-----------------|---------------------|
B|-----------------|---------------------|
G|-------^^^^^^----|---------------------|
D|-----5-6-----5---|-----5---------5-----| Rhy Fig 1
A|---5-------------|---5---^^^^^^----6---|
E|-0---------------|-0-----3-----0-------|

Gtr. 2 Dist. w/ Rhy Fig 1 five times
e|---------------|--------------|---------------|-------------|
B|---------------|--------------|---------------|-------------|
G|---------------|--------------|---------------|-------------|
D|--0---6----5---|-0-0----------|--0---6----5---|-0-0---------|
A|--0---6----5---|-0-0----------|--0---6----5---|-0-0---------|
E|--0---6----5---|-0-0----------|--0---6----5---|-0-0---------|
                   x x                            x x


e|---------------|--------------|---------------|-------------|
B|---------------|--------------|---------------|-------------|
G|---------------|--------------|---------------|-------------|
D|--0---6----5---|-0-0-0--------|--0---6----5---|-0-0---0-----|
A|--0---6----5---|-0-0-0--------|--0---6----5---|-0-0---0-----|
E|--0---6----5---|-0-0-0--------|--0---6----5---|-0-0---0-----|
                   x x x                          x x

e|---------------|--------------|---------------|
B|---------------|--------------|---------------|
G|---------------|--------------|---------------|
D|-0-0---0-------|-6-5---0------|-6-5-----------|
A|-0-0---0-------|-6-5---0------|-6-5-----------|
E|-0-0---0-------|-6-5---0------|-6-5-----------|
   x x

Both Gtrs Dist.
e|-------------------------------------------------------------------|
B|-------------------------------------------------------------------|
G|-------------------------------------------------------------------|
D|-------------------------------------------------------------------|
A|-------------------------------------------------------------------|
E|-0-0-0-0-0-0-0-0-0-0-0-0-0-0-0-0-|-0-0-0-0-0-0-0-0-0-0-0-0-0-0-0-0-|
   x x x x x x x x x x x x x x x x   x x x x x x x x x x x x x x x x

  Gtr. 1
e|---------------------------------|----------------------|
B|---------------------------------|----------------------|
G|---------------------------------|----------------------| 
D|---------------------------------|----------------------|
A|---------------------------------|--+++++++++++---------|
E|-0-0-0-0-0-0-0-0-0-0-0-0-0-0-0-0-|-2-----------12--12\--|
 | x x x x x x x x x x x x x x x x   # Harm Slide
 |
 |Gtr 2
e|---------------------------------|----------------------|
B|---------------------------------|----------------------|
G|---------------------------------|----------------------|
D|---------------------------------|----------------------|
A|---------------------------------|---++++++++++---------|
E|-0-0-0-0-0-0-0-0-0-0-0-0-0-0-0-0-|-12----------2----0---|
   x x x x x x x x x x x x x x x x   # Harm Slide

  Both Gtrs
e|--------------------------|------------------------|
B|--------------------------|------------------------|
G|--------------------------|------------------------|
D|--------------------------|------------------------| Play 4 times
A|--------------------------|------------------------|
E|-2-1-0--0--0--0--0--0--0--|-0--0--0--0--0--0--0--0-|
   x x x  x  x  x  x  x  x    x  x  x  x  x  x  x  x

e|--------------------------|---------------------------|
B|--------------------------|---------------------------|
G|--------------------------|---------------------------|
D|-----------------1--1-----|----1--1-------------------| play 5 times
A|-----------------1--1-----|----1--1-------------------|
E|-2-1-0--0--0--0--1--1--0--|-0--1--1--0--2-2-2--3-3-3--|
   x x x  x  x  x        x    x        x  x x x  x x x

e|--------------------------|-----------------|------------------------|
B|--------------------------|-----------------|------------------------|
G|--------------------------|-----------------|------------------------|
D|-----------------1--1-----|----1--1---------|-3-----5-----3-----5----|
A|-----------------1--1-----|----1--1---------|-3-----5-----3-----5----|
E|-2-1-0--0--0--0--1--1--0--|-0--1--1---------|-3--0--5--0--3--0--5--0-|
   x x x  x  x  x        x    x                    x     x     x     x

e| --------------------------|--------------------------|
B|X--------------------------|--------------------------|
G| --------------------------|--------------------------|
D| ---------3----------------|---------3----------------|
A|X-3h5--5--3----------------|-3h5--5--3----------------|
E| ---0--0--3----0-0-0-0-0-0-|---0--0--3----0-0-0-0-0-0-|
                 x x x x x x                x x x x x x

e|--------------------------|----------------------- |
B|--------------------------|-----------------------X|
G|--------------------------|----------------------- | (repeat)
D|---------3----------------|-7--7---5--5/10--10\--- |
A|-3h5--5--3----------------|-5--5---3--3/8---8-\---X|
E|---0--0--3----0-0-0-0-0-0-|----------------------- |
                x x x x x x

e|-------------|-------------|--------------------------------|
B|-------------|-------------|--------------------------------|
G|-------------|-6-----7-----|--------------------------------|
D|-7-----8-----|-6-----7-----|--------------------------------|
A|-7-----8-----|-4-----5-----|-8--8-8--8--8-8--8--8-8--8--8-8-|
E|-7-----8-----|-------------|--------------------------------|
                               x  x x  x  x x  x  x x  x  x x

e|-------------------------|
B|-------------------------|
G|-------------------------|
D|-------------------------|
A|-10-10-10-10-10-10-10-10-|
E|-------------------------|

 Rhy Fig 2
e|--------------------------|--------------------------|
B|--------------------------|--------------------------|
G|--------------------------|--------------------------|
D|---------3----------------|---------3----------------|
A|-3h5--5--3----------------|-3h5--5--3----------------|
E|---0--0--3----0-0-0-0-0-0-|---0--0--3----0-0-0-0-0-0-|
                 x x x x x x                x x x x x x

e|--------------------------|-----------------------|
B|--------------------------|-----------------------|
G|--------------------------|-----------------------|
D|---------3----------------|-7--7---5--5/10--10\---|
A|-3h5--5--3----------------|-5--5---3--3/8---8-\---|
E|---0--0--3----0-0-0-0-0-0-|-----------------------|
                x x x x x x
                                           End Rhy Fig 2
e|-------------|-------------|-------------------------|
B|-------------|-------------|-------------------------|
G|-------------|-6-----7-----|-----------------10------|
D|-7-----8-----|-6-----7-----|-----------------10------|
A|-7-----8-----|-4-----5-----|-8-8-8-8-8-8-8-8-8-------|
E|-7-----8-----|-------------|-------------------------|
                               x x x x x x x x

PRE VERSE
 Gtr 1
e|---------------------------------|---------------------------------|
B|---------------------------------|---------------------------------|
G|---------------------------------|---------------------------------|
D|---------------------------------|---------------------------------|
A|---------------------------------|---------------------------------|
E|-2-2-2-2-2-2-2-2-2-2-2-2-2-2-2-2-|-2-2-2-2-2-2-2-2-2-2-2-2-2-2-2-2-|
 | x x x x x x x x x x x x x x x x   x x x x x x x x x x x x x x x x
 |Gtr 2
e|---------------------------------|---------------------------------|
B|---------------------------------|---------------------------------|
G|---------------------------------|---------------------------------|
D|-9-9-9-9-9-9---------------------|---------------------------------|
A|-------------8-8-8-8-8-8-7-7-7-7-|-5-5-5-5-5-5-2-2-2-2-2-2---------|
E|---------------------------------|-------------------------3-3-3-3-|

 Both Gts
e|---------------------------------|---------------------------|
B|---------------------------------|---------------------------|
G|---------------------------------|---------------------------|
D|---------------------------------|----------2----------------|
A|---------------------------------|-2--3--5-----5--3--2h3p2p0-|
E|-2-2-2-2-2-2-2-2-2-2-2-2-2-2-2-2-|---------------------------|
   x x x x x x x x x x x x x x x x   x  x  x  x  x  x

e|---------------------------------|---------------------------------|
B|---------------------------------|---------------------------------|
G|---------------------------------|---------------------------------|
D|---------------------------------|---------------------------------|
A|---------------------------------|---------------------------------|
E|-2-2-2-2-2-2-2-2-2-2-2-2-2-2-2-2-|-2-2-2-2-2-2-2-2-2-2-2-2-2-2-2-2-|
 | x x x x x x x x x x x x x x x x   x x x x x x x x x x x x x x x x

e|---------------------------------|---------------------------|
B|---------------------------------|---------------------------|
G|---------------------------------|---------------------------|
D|---------------------------------|----------2----------------|
A|---------------------------------|-2--3--5-----5--3--2h3p2p0-|
E|-2-2-2-2-2-2-2-2-2-2-2-2-2-2-2-2-|---------------------------|
   x x x x x x x x x x x x x x x x   x  x  x  x  x  x

VERSE
 Gtr 1
e|---------------------------------|---------------------------------|
B|---------------------------------|---------------------------------|
G|-4-------------------------------|(4)----------------------4-------|
D|-X-------------------------------|(X)----------------------X-------|
A|-2-------------------------------|(2)----------------------2-------|
E|---------------------------------|---------------------------------|
 |
 |Gtr 2
e|---------------------------------|---------------------------------|
B|---------------------------------|---------------------------------|
G|-4-4-4-4-4-4-4-4-4-4-4-4-4-4-4-4-|-4-4-4-4-4-4-4-4-4-4-4-4-4-4-4-4-|
D|-X-X-X-X-X-X-X-X-X-X-X-X-X-X-X-X-|-X-X-X-X-X-X-X-X-X-X-X-X-X-X-X-X-|
A|-2-2-2-2-2-2-2-2-2-2-2-2-2-2-2-2-|-2-2-2-2-2-2-2-2-2-2-2-2-2-2-2-2-|
E|---------------------------------|---------------------------------|


e|---------------------------------|---------------------------------|
B|---------------------------------|---------------------------------|
G|-5-------------------------------|(5)------------------------------|
D|-X-------------------------------|(X)------------------------------|
A|-3-------------------------------|(3)------------------------------|
E|---------------------------------|---------------------------------|
 |
e|---------------------------------|---------------------------------|
B|---------------------------------|---------------------------------|
G|---------------------------------|---------------------------------|
D|-3-3-3-3-3-3-3-3-3-3-3-3-3-3-3-3-|-3-3-3-3-3-3-3-3-3-3-3-3-3-3-3-3-|
A|-X-X-X-X-X-X-X-X-X-X-X-X-X-X-X-X-|-X-X-X-X-X-X-X-X-X-X-X-X-X-X-X-X-|
E|-3-3-3-3-3-3-3-3-3-3-3-3-3-3-3-3-|-3-3-3-3-3-3-3-3-3-3-3-3-3-3-3-3-|



e|---------------------------------|---------------------------------|
B|---------------------------------|---------------------------------|
G|-4-------------------------------|(4)------------------------------|
D|-X-------------------------------|(X)------------------------------|
A|-2-------------------------------|(2)------------------------------|
E|---------------------------------|---------------------------------|
 |
e|---------------------------------|---------------------------------|
B|---------------------------------|---------------------------------|
G|-4-4-4-4-4-4-4-4-4-4-4-4-4-4-4-4-|---------------------------------|
D|-X-X-X-X-X-X-X-X-X-X-X-X-X-X-X-X-|-2-2-2-2-2-2-2-2-2-2-2-2-2-2-2-2-|
A|-2-2-2-2-2-2-2-2-2-2-2-2-2-2-2-2-|-X-X-X-X-X-X-X-X-X-X-X-X-X-X-X-X-|
E|---------------------------------|-2-2-2-2-2-2-2-2-2-2-2-2-2-2-2-2-|


e|---------------------------------|---------------------------------|
B|---------------------------------|---------------------------------|
G|-4-------------------------------|-5-------------------------------|
D|-X-------------------------------|-X-------------------------------|
A|-2-------------------------------|-3-------------------------------|
E|---------------------------------|---------------------------------|
 |
e|---------------------------------|---------------------------------|
B|---------------------------------|---------------------------------|
G|-4-4-4-4-4-4-4-4-4-4-4-4-4-4-4-4-|---------------------------------|
D|-X-X-X-X-X-X-X-X-X-X-X-X-X-X-X-X-|-3-3-3-3-3-3-3-3-3-3-3-3-3-3-3-3-|
A|-2-2-2-2-2-2-2-2-2-2-2-2-2-2-2-2-|-X-X-X-X-X-X-X-X-X-X-X-X-X-X-X-X-|
E|---------------------------------|-3-3-3-3-3-3-3-3-3-3-3-3-3-3-3-3-|

 Both Gtrs.
e|-----------------|-----------------|-----------------|------------------|
B|-----------------|-----------------|-----------------|------------------|
G|-4---------------|-4---------------|-4---------------|-4----------------|
D|-4-----2-----3---|-4-----2-----3---|-4-----2-----3---|-4-----2-----3----|
A|-2-----2-----3---|-2-----2-----3---|-2-----2-----3---|-2-----2-----3----|
E|-------2-----3---|-------2-----3---|-------2-----3---|-------2-----3----|

e|------------------------|------------------------|
B|------------------------|------------------------|
G|------------------------|------------------------|
D|-2--2--2--2--2--0--0--0-|-2--2--2--2--2--0--0--0-|
A|-2--2--2--2--2--0--0--0-|-2--2--2--2--2--0--0--0-|
E|-2--2--2--2--2--0--0--0-|-2--2--2--2--2--0--0--0-|
   x  x  x  x  x  x  x  x   x  x  x  x  x  x  x  x

e|----------------|----------------|-----------------------------|
B|----------------|----------------|-----------------------------|
G|----------------|-6------7-------|-----------------10----------|
D|-7------8-------|-6------7-------|-----------------10----------|
A|-7------8-------|-4------5-------|-8-8-8-8-8-8-8-8-8-----------|
E|-7------8-------|----------------|-----------------------------|
                                     x x x x x x x x 


Play Rhy Fig 2, both gtrs.



CHORUS
 Both Gtrs.
e| -----------------------|-----------------------|
B|X-----------------------|-----------------------|
G| -7--7----10-10-9--9--7-|-7--7----10-10-9--9--7-|
D| -X--X----X--X--X--X--X-|-X--X----X--X--X--X--X-|
A|X-5--5----8--8--7--7--5-|-5--5----8--8--7--7--5-|
E| -0--0----0--0--0--0--0-|-0--0----0--0--0--0--0-|

e|-----------------------|---------------------- |
B|-----------------------|----------------------X|
G|-7--7----10-10-9--9--7-|---------------------- | Play 4 times
D|-X--X----X--X--X--X--X-|-5--5----5--5--2--2--- |
A|-5--5----8--8--7--7--5-|-3--3----2--2--0--0---X|
E|-0--0----0--0--0--0--0-|---------------------- |

e|--------------------|
B|--------------------|
G|-3----3----3--------|
D|-3----3----3--------| (End Chorus)
A|-1----1----1--------|
E|-1----1----1--------|

e|--------------------------|---------------------------|
B|--------------------------|---------------------------|
G|--------------------------|---------------------------|
D|-----------------1--1-----|----1--1-------------------| play 3 times
A|-----------------1--1-----|----1--1-------------------|
E|-2-1-0--0--0--0--1--1--0--|-0--1--1--0--2-2-2--3-3-3--|
   x x x  x  x  x        x    x        x  x x x  x x x

e|--------------------------|-----------------|------------------------|
B|--------------------------|-----------------|------------------------|
G|--------------------------|-----------------|------------------------|
D|-----------------1--1-----|----1--1---------|-3-----5-----3-----5----|
A|-----------------1--1-----|----1--1---------|-3-----5-----3-----5----|
E|-2-1-0--0--0--0--1--1--0--|-0--1--1---------|-3--0--5--0--3--0--5--0-|
   x x x  x  x  x        x    x                    x     x     x     x

e| --------------------------|--------------------------|
B|X--------------------------|--------------------------|
G| --------------------------|--------------------------|
D| ---------3----------------|---------3----------------|
A|X-3h5--5--3----------------|-3h5--5--3----------------|
E| ---0--0--3----0-0-0-0-0-0-|---0--0--3----0-0-0-0-0-0-|
                 x x x x x x                x x x x x x

e|--------------------------|----------------------- |
B|--------------------------|-----------------------X|
G|--------------------------|----------------------- |
D|---------3----------------|-7--7---5--5/10--10\--- |  Repeat
A|-3h5--5--3----------------|-5--5---3--3/8---8-\---X|
E|---0--0--3----0-0-0-0-0-0-|----------------------- |
                x x x x x x

e|-------------|-------------|-------------------------|
B|-------------|-------------|-------------------------|
G|-------------|-6-----7-----|-----------------10------|
D|-7-----8-----|-6-----7-----|-----------------10------|
A|-7-----8-----|-4-----5-----|-8-8-8-8-8-8-8-8-8-------|
E|-7-----8-----|-------------|-------------------------|
                               x x x x x x x x


Play Pre Verse


Play Verse


Play Chorus


PRE SOLO
 Both Gtrs.
e|---------------------------------|-------------|
B|---------------------------------|-------------|
G|---------------------------------|-------------|
D|---------------------------------|-0-----------|
A|---------------------------------|-0-----------|
E|-7-7-7-7-3-3-3-3-5-5-5-5-1-1-1-1-|-0-----------|
   x x x x x x x x x x x x x x x x

 Gtr 1
e| ------------------------|---------------------- |
B|X------------------------|----------------------X|
G| ------------------------|---------------------- | play 3 times
D| ------------7--(7)\-----|---------------------- |
A|X------------7--(7)\-----|----------------------X|
E| -0-0-0-0-0--7--(7)\-----|---------------------- |
 |  x x x x x
 |Gtr 2 w/ wah
e| ------------------------|---------------------- |
B|X------------------------|----------------------X|
G| ------------------------|---------------------- | Play 3 times
D| -7-----8--7-------7-----|------5--------------- |
A|X----5----------5-----8--|---7-----8----7--6--5-X|
E| ------------------------|---------------------- |


e|------------------------|----------------------|
B|------------------------|----------------------|
G|------------------------|----------------------|
D|------------7--(7)\-----|--------------3--2--1-|
A|------------7--(7)\-----|--------------3--2--1-|
E|-0-0-0-0-0--7--(7)\-----|--------------3--2--1-| 
 | x x x x x                             x  x  x
 |
e|------------------------|----------------------|
B|------------------------|----------------------|
G|------------------------|----------------------|
D|-7-----8--7-------7-----|------5---------------|
A|----5----------5-----8--|---7-----8----7--6--5-|
E|------------------------|----------------------|

 Rhy Fig 3                                         End Rhy Fig 3
e|------------------------|-------------------------|
B|------------------------|-------------------------|
G|------------------------|-------------------------|
D|------------7----7--7---|------------3----3--2--1-| play 4 times
A|------------7----7--7---|------------3----3--2--1-|
E|-0-0-0-0-0--7----7--7---|-3-3-3-3-3--3----3--2--1-| 
 | x x x x x                x x x x x 
 |
e|------------------------|-------------------------|
B|------------------------|-------------------------|
G|------------------------|-------------------------|
D|-7-----8--7-------7-----|------5------------------| Play 4 times
A|----5----------5-----8--|---7-----8-------7--6--5-|
E|------------------------|-------------------------|


SOLO w/ Rhy Fig 3 (Gtr 1 four times)
 Gtr 2 NO wah
e|----------------|----------------------|----------------------|
B|----------------|----------------------|----------------------|
G|----------------|----------------------|----------------------|
D|-/12----------0-|-/12---0/12---0/12--0-|-/12---0/12---0/12--0-|
A|--#-------------|--#------#------#-----|--#------#------#-----|
E|--#-------------|--#------#------#-----|--#------#------#-----|

e|-----------------------|-----------------------|-------------------------|
B|-----------------------|--------------------5--|--------------------5----|
G|-----------------------|--------------------5--|--------------------5----|
D|-12\11\10\9\8\7--0--5--|-7p5-7p5-7--p5-7p5-----|-7p5-7p5-7--p5-7p5-------|
A|-#--#--#--#-#-#--------|-----------------------|-------------------------|
E|-#--#--#--#-#-#--------|-----------------------|-------------------------|

e|-------------------------|-----------------------|
B|--------------------5----|----------------5----0-|
G|--------------------5----|----------------5/14\0-|
D|-7p5-7p5-7--p5-7p5-------|-7p5--7p5--7-----------|
A|-------------------------|-----------------------|
E|-------------------------|-----------------------|

 Gtr 1
e|----------------------------------------|
B|----------------------------------------|
G|---------------4------------------------|
D|-2-------------4------------------------|
A|-2-------------2------------------------|
E|-2----------0---------------------------|
 |            x                         
 |Gtr 2
e|----------------------------------------|
B|----------------------------------------|
G|-4p2p0-------4p2p0-----4p2p0-4p2p0------|
D|------4p2p0-------4p2p0-----------4p2p0-|
A|----------------------------------------|
E|----------------------------------------|


 Gtr 1
e|--------------------------------------------|
B|--------------------------------------------|
G|-3------------------------------------------|
D|-3---------------3--------------------------|
A|-1---------------3--------------------------|
E|-----------0-----3--------------------------|
 |           x
 |Gtr 2
e|--------------------------------------------|
B|--------------------------------------------|
G|-4p2p0-----4p2p0-4p2p0-----4p2p0-4p2p0------|
D|------4p2p0-----------4p2p0-----------4p2p0-|
A|--------------------------------------------|
E|--------------------------------------------|


e|------------------------------------------|
B|------------------------------------------|
G|----------------4-------------------------|
D|-2--------------4-------------------------|
A|-2--------------2-------------------------|
E|-2---------0------------------------------|
 |           x                              
e|------------------------------------------|
B|------------------------------------------|
G|-4p2p0-----4p2p0-----4p2p0-----4p2p0------|
D|------4p2p0-----4p2p0-----4p2p0-----4p2p0-|
A|------------------------------------------|
E|------------------------------------------|


e|---------------------------------------|
B|---------------------------------------|
G|-3-------------------------------------|
D|-3--------------3---------2----1----0--|
A|-1--------------3---------2----1----0--|
E|-----------0----3---------2----1----0--|
 |           x              x    x    x
e|---------------------------------------|
B|---------------------------------------|
G|-4p2p0-----4p2p0-----4p2p0-----4p2p0---|
D|------4p2p0-----4p2p0-----4p2p0-----4--|
A|---------------------------------------|
E|---------------------------------------|


e|--------------------------------------------|
B|--------------------------------------------|
G|----------------4---------------------------|
D|-2--------------4---------------------------|
A|-2--------------2---------------------------|
E|-2---------0--------------------------------|
 |           x                                 
e|--------------------------------------------|
B|--------------------------------------------|
G|-4p2p0-----4p2p0-4p2p0-----4p2p0-4p2p0------|
D|------4p2p0-----------4p2p0-----------4p2p0-|
A|--------------------------------------------|
E|--------------------------------------------|


e|---------------------------------------|
B|---------------------------------------|
G|-3-------------------------------------|
D|-3--------------3----------------------|
A|-1--------------3----------------------|
E|-----------0----3----------------------|
 |           x              
e|---------------------------------------|
B|---------------------------------------|
G|-4p2p0-----4p2p0-4p2p0-----4p2p0-4p2-0-|
D|------4p2p0-----------4p2p0------------|
A|---------------------------------------|
E|---------------------------------------|


e|--------------------------------|----------------------------------|
B|--------------------------------|----------------------------------|
G|-----------------4--------------|----------------------------------|
D|-2---------------4--------------|----------------------------------|
A|-2---------------2--------------|----------------------------------|
E|-2-------0----------------------|-7-7-7-7-3-3-3-3-5-5-5-5-1-1-1-1--|
 |         x                        x x x x x x x x x x x x x x x x
e|--------------------------------|----------------------------------|
B|------0--5p2--0--6p3--0--7p4--0-|-8p5--0--9p6--0--10p7--0--11p8--0-|
G|-4p2----------------------------|----------------------------------|
D|--------------------------------|----------------------------------|
A|--------------------------------|----------------------------------|
E|--------------------------------|----------------------------------|


 w/ Rhy Fig 3 three times
e|--------------------------------|---------------------------------|
B|-12p9-0-13p10-0-15p12-0-16p13-0-|-17p14-0-18p15-0-19p16-0-20p17-0-|
G|--------------------------------|---------------------------------|
D|--------------------------------|---------------------------------|
A|--------------------------------|---------------------------------|
E|--------------------------------|---------------------------------|

e|---------------------------------|-----------------------------|
B|-21p18-0-22p19-0-22p19-0-22p19-0-|-22p19-0-22p19-0-22p19-0-22\-|
G|---------------------------------|-----------------------------|
D|---------------------------------|-----------------------------|
A|---------------------------------|-----------------------------|
E|---------------------------------|-----------------------------|

     /\/\/\/\/\/\/\/\/\/\/\/\/\/\/\/\/\/\/\/\/\/\/\/\
e|-20----------------------------|-(20)------------------------|
B|-X-----------------------------|-(X)-------------------------|
G|-X-----------------------------|-(X)-------------------------|
D|-X-----------------------------|-(X)-------------------------|
A|-0-----------------------------|-(0)-------------------------|
E|-------------------------------|---------------------20\-----|

 Gtr 1
e|--------------------------|----------------|
B|--------------------------|----------------|
G|--------------------------|----------------|
D|------------7--\----------|----7--\-/7-----|
A|------------7--\----------|----7--\-/7-----|
E|-0-0-0-0-0--7--\--0-0-0-0-|-0--7--\-/7-----|
 |Gtr 2
e|--------------------------|----------------|
B|------------13-\----------|----13----13\---|
G|------------12-\----------|----12----12\---|
D|-5---/---14-------5----/--|-14-------------|
A|--------------------------|----------------|
E|--------------------------|----------------|


e|--------------------------|------------------|
B|--------------------------|------------------|
G|--------------------------|------------------|
D|------------7--\----------|----7--\-/7-------|
A|------------7--\----------|----7--\-/7-------|
E|-0-0-0-0-0--7--\--0-0-0-0-|-0--7--\-/7-------|
 |
e|--------------------------|------------------|
B|------------13-\----------|----13----13\-----|
G|------------12-\----------|----12----12\-----|
D|-5---/---14-------5----/--|-14-----------2p0-|
A|--------------------------|------------------|
E|--------------------------|------------------|

INTERLUDE
 Both Gtrs
e| --------------------|----------------------|--------------------|
B|X--------------------|----------------------|--------------------|
G| --------------------|----------------------|--------------------|
D| -7h8--7---------7h8-|-7--------------------|-7h8--7---------7h8-|
A|X-5----5--8------5---|-5--8---5-------------|-5----5--8------5---|
E| ---------0---0------|----0---0--0--0--0--0-|---------0---0------|
               x                  x  x  x  x               x

e|----------------------|---------------------|---------------------|
B|----------------------|---------------------|---------------------|
G|----------------------|---------------------|---------------------|
D|-7--------------------|-7h8--7----------7---|-7h8---7-------------|
A|-5--8---5-------------|-5----5--8----5--8---|-8-8---8--8--8--8--8-|
E|----0---0--0--0--0--0-|---------0----0--7---|-7-7---7--7--7--7--7-|
             x  x  x  x                                  x  x  x  x

e|-----------------------|----------------------- |
B|-----------------------|-----------------------X|
G|-----------------------|----------------------- |
D|-6-----6h7----6--2-----|-2h3-----2------------- | (repeat)
A|-7-----7-7----7--3-----|-3-3-----3--3--3--3--0-X|
E|-6-----6-6----6--2-----|-2-2-----2--2--2--2--0- |
                                      x  x  x  x

e| --------------------------------- |
B|X---------------------------------X|
G| --------------------------------- |
D| --------------------------------- | Play 4 times
A|X---------------------------------X|
E| -0-0-0-0-0-0-0-0-0-0-0-0-0-0-0-0- |
    x x x x x x x x x x x x x x x x

e| --------------------------------- |
B|X---------------------------------X|
G| --------------------------------- | (repeat)
D| --------------------------------- |
A|X---------------------------------X|
E| -2-2-2-2-2-2-2-2-2-2-2-2-2-2-2-2- |
    x x x x x x x x x x x x x x x x

SOLO 2
 Gtr 1
e|------------------------------|---------------|
B|------------------------------|---------------|
G|------------------------------|---------------|
D|------------------------------|---------------|
A|------------------------------|---^^^---------|
E|-2-2-2-2-2-2-2-2-2-2-2-2-2--/-|-9---5---7---3-|
 | x x x x x x x x x x x x                        
 |Gtr 2 w/ wah
e|-------0---------(0)----------|---------------|
B|-----0-----------(0)----------|---------0-----|
G|---0-------------(0)----------|---------------|
D|-0---------------(0)----------|---------------|
A|------------------------------|---------------|
E|------------------Bar Dive----|---------Dive--|
                                -1 -2 1/2   -2 1/2


e|-----------------------------|
B|-----------------------------|
G|-----------------------------|
D|---------2-------------------|
A|---------2-------------------|
E|-2-2-2-2-2-------------------|
 | x x x x x  
e|-----------------------------|
B|-----------------------------|
G|-3p2p0-----3p2p0-----3p2p0---|
D|-------2---------2---------2-|
A|-----------------------------|
E|-----------------------------|


e|-------------------------------|-------------------------------|
B|-------------------------------|-------------------------------|
G|-------------------------------|-------------------------------|
D|---------2---------------------|---------3---------------------|
A|---------2---------------------|---------3---------------------|
E|-2-2-2-2-2---------------------|-3-3-3-3-3---------------------|
 | x x x x                         x x x x
e|-------------------------------|-------------------------------|
B|-3p2p0-----3p2p0-----3p2p0-----|-3p2p0-----3p2p0-----3p2p0-----|
G|-------2---------2---------2---|-------3---------3---------3p0-|
D|-------------------------------|-------------------------------|
A|-------------------------------|-------------------------------|
E|-------------------------------|-------------------------------|
 

e|-------------------------------|---------------------------------|
B|-------------------------------|---------------------------------|
G|-------------------------------|---------5-----------------------|
D|---------3---------------------|---------5-----------------------|
A|---------3---------------------|-3-3-3-3-3-----------------------|
E|-3-3-3-3-3---------------------|---------------------------------|
 | x x x x                         x x x x
e|-------------------------------|---------------------------------|
B|-------------------------------|-5p3---0-5p3---0-5p3---0-5p3---0-|
G|-3p2p0-----3p2p0-----3p2p0-----|-----5-------5-------5-------5---|
D|-------3---------3---------3p0-|---------------------------------|
A|-------------------------------|---------------------------------|
E|-------------------------------|---------------------------------|


e|---------------------------------|---------------------------------|
B|---------------------------------|---------------------------------|
G|---------5-----------------------|---------------------------------|
D|---------5-----------------------|---------5-----------------------|
A|-3-3-3-3-3-----------------------|---------5-----------------------|
E|---------------------------------|-5-5-5-5-5-----------------------|
 | x x x x                           x x x x
e|---------------------------------|---------------------------------|
B|---------------------------------|---------------------------------|
G|-5p3---0-5p3---0-5p3---0-5p3---0-|---------------------------------|
D|-----5-------5-------5-------5---|-5p3---0-5p3---0-5p3---0-5p3---0-|
A|---------------------------------|-----5-------5-------5-------5---|
E|---------------------------------|---------------------------------|


e|-------------------------------|--------------------------------|
B|-------------------------------|--------------------------------|
G|-------------------------------|--------------------------------|
D|---------5-----------5---4---3-|---------2---------------2------|
A|---------5-----------5---4---3-|---------2---------------2------|
E|-5-5-5-5-5-----------5---4---3-|-2-2-2-2-2-------2-2-2-2-2------|
 | x x x x             x   x   x   x x x x         x x x x
e|-------------------------------|--------------------------------|
B|-------------------------------|--------------------------------|
G|-------------------------------|-3p2p0-----3p2p0-------3p2p0----|
D|-5p3---0-5p3---0-5p3---0-5p3\2-|-------2---------2-----------2--|
A|-----5-------5-------5---------|--------------------------------|
E|-------------------------------|--------------------------------|


e|------------------------------------|------------------------------------|
B|------------------------------------|------------------------------------|
G|------------------------------------|------------------------------------|
D|---------2-----------------2--------|---------3-----------------3--------|
A|---------2-----------------2--------|---------3-----------------3--------|
E|-2-2-2-2-2---------2-2-2-2-2--------|-3-3-3-3-3---------3-3-3-3-3--------|
 | x x x x           x x x x            x x x x           x x x x 
e|------------------------------------|------------------------------------|
B|-3p2p0----3p2p0----3p2p0----3p2p0---|-3p2p0----3p2p0----3p2p0----3p2p0---|
G|-------2--------2--------2--------2-|-------3--------3--------3--------3-|
D|------------------------------------|------------------------------------|
A|------------------------------------|------------------------------------|
E|------------------------------------|------------------------------------|



e|------------------------------------|------------------------------------|
B|------------------------------------|------------------------------------|
G|------------------------------------|---------5-----------------5--------|
D|---------3-----------------3--------|---------5-----------------5--------|
A|---------3-----------------3--------|-3-3-3-3-3---------3-3-3-3-3--------|
E|-3-3-3-3-3---------3-3-3-3-3--------|------------------------------------|
 | x x x x           x x x x            x x x x           x x x x
e|------------------------------------|------------------------------------|
B|------------------------------------|------------------------------------|
G|-3p2p0----3p2p0----3p2p0----3p2p0---|-5p3p0----5p3p0----5p3p0----5p3p0---|
D|-------3--------3--------3--------3-|-------5--------5--------5--------5-|
A|------------------------------------|------------------------------------|
E|------------------------------------|------------------------------------|


e|------------------------------------|------------------------------------|
B|------------------------------------|------------------------------------|
G|---------5-----------------5--------|------------------------------------|
D|---------5-----------------5--------|---------5-----------------5--------|
A|-3-3-3-3-3---------3-3-3-3-3--------|---------5-----------------5--------|
E|------------------------------------|-5-5-5-5-5---------5-5-5-5-5--------|
 | x x x x           x x x x            x x x x           x x x x
e|------------------------------------|------------------------------------|
B|------------------------------------|------------------------------------|
G|-5p3p0----5p3p0----5p3p0----5p3p0---|------------------------------------|
D|-------5--------5--------5--------5-|-5p3p0----5p3p0----5p3p0----5p3p0---|
A|------------------------------------|-------5--------5--------5--------5-|
E|------------------------------------|------------------------------------|



e|-----------------------------------|
B|-----------------------------------|
G|-----------------------------------|
D|---------5-------------5--4--3-----|
A|---------5-------------5--4--3-----|
E|-5-5-5-5-5---------5-5-5--4--3-----|
 | x x x x           x x x  x  x     
e|-----------------------------------|
B|-----------------------------------|
G|--------------------------------12-|
D|-5p3p0----5p3p0----5p3p0---5/14----|
A|-------5--------5------------------|
E|-----------------------------------|


e|-------------------------------------------------|
B|-------------------------------------------------|
G|-------------------------------------------------|
D|---------2-----------------------2---------------|
A|---------2-----------------------2---------------|
E|-2-2-2-2-2---------------2-2-2-2-2---------------|
 | x x x x                 x x x x
e|-------------------------------------------------|
B|-------------------------------------------------|
G|-14p12----12-14p12-14p12----12-14p12-14p12----12-|
D|-------14----------------14----------------14----|
A|-------------------------------------------------|
E|-------------------------------------------------|


e|------------------------------------|---------------------------------|
B|------------------------------------|---------------------------------|
G|------------------------------------|---------------------------------|
D|---------2--------------------------|---------------------------------|
A|---------2--------------------------|---------------------------------|
E|-2-2-2-2-2----------------2-2-2-2-X-|-0-0-0-0-0-0-0-0-0-0-0-0-0-0-0-0-|
 | x x x x                  x x x x     x x x x x x x x x x x x x x x x
e|------------------14--15--17---/----|-24\-----------------------------|
B|------17--15--17----------#---------|---------------------------------|
G|/16-----------------------#---------|---------------------------------|
D|------------------------------------|---------------------------------|
A|------------------------------------|---------------------------------|
E|------------------------------------|---------------------------------|


 Both Gtrs. (no wah)
e|---------------------------------|
B|---------------------------------|
G|---------------------------------| Play 3 times
D|---------------------------------|
A|---------------------------------|
E|-0-0-0-0-0-0-0-0-0-0-0-0-0-0-0-0-|
   x x x x x x x x x x x x x x x x


e| -----------------------|-------------------|--------------------------------|
B|X-----------------------|-------------------|--------------------------------|
G| ---------10-----9------|-8-----7-----8-----|-9------------------------------|
D| ---------10-----9------|-8-----7-----8-----|-9------------------------------|
A|X---------8------7------|-6-----5-----6-----|-7------------------------------|
E| -0-0-0-0-8------7------|-6-----5-----6-----|-7--0-0-0-0-0-0-0-0-0-0-0-0-0-0-|
    x x x x                                        x x x x x x x x x x x x x x


e|--------------------------------- |
B|---------------------------------X|
G|--------------------------------- |
D|--------------------------------- | (repeat)
A|---------------------------------X|
E|-0-0-0-0-0-0-0-0-0-0-0-0-0-0-0-0- |
   x x x x x x x x x x x x x x x x


e|-----------------------|---------------|---------------|---------------|
B|-----------------------|---------------|---------------|---------------|
G|----------10-----9-----|-8-----7-----8-|-9-----7-----6-|-5-----4-----5-|
D|----------10-----9-----|-8-----7-----8-|-9-----7-----6-|-5-----4-----5-|
A|----------8------7-----|-6-----5-----6-|-7-----5-----4-|-3-----2-----3-|
E|-0-0-0-0--8------7-----|-6-----5-----6-|-7-----5-----4-|-3-----2-----3-|
   x x x x


e|---------------------------------|---------------------------------|
B|---------------------------------|---------------------------------|
G|---------------------------------|---------------------------------|
D|---------------------------------|---------------------------------|
A|---------------------------------|---------------------------------|
E|-0-0-0-0-0-0-0-0-0-0-0-0-0-0-0-0-|-0-0-0-0-0-0-0-0-0-0-0-0-0-0-0-0-|
   x x x x x x x x x x x x x x x x   x x x x x x x x x x x x x x x x


e|---------------------------------|--------------------------|
B|---------------------------------|--------------------------|
G|---------------------------------|--------------------------|
D|---------------------------------|------------------3--2--1-|  Play 4 times
A|---------------------------------|------------------3--2--1-|
E|-0-0-0-0-0-0-0-0-0-0-0-0-0-0-0-0-|-0-0-0-0-0-0-0-0--3--2--1-|
   x x x x x x x x x x x x x x x x   x x x x x x x x


e|---------------------------------|------------------------|
B|---------------------------------|------------------------|
G|---------------------------------|------------------------|
D|---------------------------------|------------------3--2--|
A|---------------------------------|------------------3--2--|
E|-0-0-0-0-0-0-0-0-0-0-0-0-0-0-0-0-|-0-0-0-0-0-0-0-0--3--2--|



Play CHORUS


 Both Gtrs
e|--------------------------|----------------------------|
B|--------------------------|----------------------------|
G|--------------------------|----------------------------|
D|------------------1--1----|----1--1--------------------|  Play 2 times
A|------------------1--1----|----1--1--------------------|
E|-2-1--0--0--0--0--1--1--0-|-0--1--1--0--2-2--2--3-3--3-|
   x x  x  x  x  x        x   x        x  x x  x  x x  x

 Gtr 1
e|-----------------|---------------------|
B|-----------------|---------------------|
G|-------^^^^^^----|---------------------|
D|-----5-6-----5---|-----5---------5-----|
A|---5-------------|---5---^^^^^^----6---|
E|-0---------------|-0-----3-----0-------|
 |
 |Gtr 2                                        Play 4 times
e|-----------------|---------------------|
B|-----------------|---------------------|
G|-----------------|---------------------|
D|-0---------------|(0)-----------5--1---|
A|-0---------------|(0)-----------5--1---|
E|-0---------------|(0)-----------5--1---|
                                  x  x

 Both Gtrs
e|------------------------|-------------|
B|------------------------|-------------|
G|------------------------|-------------|
D|-3-----5-----3-----5----|-------------|  Play 3 times
A|-3-----5-----3-----5----|-3h5--3h5----|
E|-3--0--5--0--3--0--5--0-|---0----0--0-|
      x     x     x     x             x


e|------------------------|-----------------------|---------------------|
B|------------------------|-----------------------|---------------------|
G|------------------------|-----------------------|-7-------------------|
D|-3-----5-----3-----5----|------------------5----|-7--------------5----|  
A|-3-----5-----3-----5----|-3h5-----------------6-|-5-----------------6-|
E|-3--0--5--0--3--0--5--0-|---0----0--3---0-------|------0--3---0-------|
      x     x     x     x                 x              x      x


e|--------------------|--------------------|------------------|
B|--------------------|--------------------|------------------|
G|-7------------------|-7------------------|----------------^^^
D|-7------3------5----|-7------3------5----|-------5--6-----5-|
A|-5------3---------6-|-5------3---------6-|----5-------------|
E|-----0--3---0-------|-----0--3---0-------|-0----------------|
       x      x             x      x


e|-------------|-------------------|
B|-------------|-------------------|
G|^^^^^^^^^^^^^^^^^^^^^^-----------|
D|(5)----------|(5)-----------5--0-|
A|-------------|-----------5-----0-|
E|-------------|--------0--------0-|
                        x  x







Luck. Runs. Out. 
Crawl from the wreckage one more time 
Horrific memory twists the mind 
Dark, rugged, cold and hard to turn 
Path of destruction, feel it burn 
Still life 
Incarnation 
Still life 
Infamy 

Hallucination 
Heresy 
Still you run, what's to come? 
What's to be? 

'Cause we hunt you down without mercy 
Hunt you down all nightmare long 
Feel us breathe upon your face 
Feel us shift, every move we trace 
Hunt you down without mercy 
Hunt you down all nightmare long, yeah 
Luck. Runs. 

You crawl back in 
But your luck runs out 

1.2. 

Luck. Runs. Out. 

The light that is not light is here 
To flush you out with your own fear 
You hide, you hide, but will be found 
Release your crypt without a sound 

Still life 
Immolation 
Still life 
Infamy 

Hallucination 
Heresy 
Still you run, what's to come? 
What's to be? 

'Cause we hunt you down without mercy 
Hunt you down all nightmare long 
Feel us breathe upon your face 
Feel us shift, every move we trace 
Hunt you down without mercy 
Hunt you down all nightmare long 
Luck. Runs. 

You crawl back in 
But your luck runs out 

Then you crawl back in 
Into your obsession 
Never to return 
This is your confession 

Hunt you down without mercy 
Hunt you down all nightmare long 
Feel us breathe upon your face 
Feel us shift, every move we trace 
Hunt you down without mercy 
Hunt you down all nightmare long, yeah 
Luck. Runs. 

You crawl back in 
But your luck runs out 

Your luck runs out











Key

  /     Slide Up
  \     Slide down
  h     hammer
  p     pull off
^^^^^^  Vibrato
  x     Palm Mute
  #     Tremolo
  +     Harmonic (slide)
/\/\/\  Wide Vibrato

|     |
|X   X|
|     |
|     |  Repeats
|X   X|
|     |










---------------


version 2 






Guitar 1 (D A D G B e) 'James Hetfield - Rhythm w/dist
Guitar 2 (D A D G B e) 'Kirk Hammett   - Lead   w/dist



Intro [0:00-0:38]
 Medium Rock Q=120
4/4
Gtr I
e|----------------------|----------------------||
B|----------------------|----------------------||
G|----------------------|----------------------||
D|-------5--6------5----|-------5----------5---||
A|---5------------------|----5---------------6-||
D|-0--------------------|-0--------3----0------||

Guitar 1 repeats above until tempo change
Guitar 2 Enters at 0:16 after some feedback, and plays synchronized with drums.

Gtr 1
e|----------------------|----------------------|
B|----------------------|----------------------|
G|----------------------|----------------------|
D|-------5--6------5----|-------5----------5---|
A|----5-----------------|----5---------------6-|
D|-0--------------------|-0--------3----0------|
|
Gtr 2
e|----------------------|----------------------|
B|----------------------|----------------------|
G|----------------------|----------------------|
D|----------------------|----------------------|
A|-0--------6------5----|-0--0-----------------|
D|-0--------5------5----|-0--0-----------------|


Gtr 1
e|----------------------|----------------------|
B|----------------------|----------------------|
G|----------------------|----------------------|
D|-------5--6------5----|-------5----------5---|
A|----5-----------------|----5---------------6-|
D|-0--------------------|-0--------3----0------|
 |
Gtr 2
e|----------------------|----------------------|
B|----------------------|----------------------|
G|----------------------|----------------------|
D|----------------------|----------------------|
A|-0--------6------5----|-0--0-----------------|
D|-0--------5------5----|-0--0-----------------|


Gtr 1
e|----------------------|----------------------|
B|----------------------|----------------------|
G|----------------------|----------------------|
D|-------5--6------5----|-------5----------5---|
A|----5-----------------|----5---------------6-|
D|-0--------------------|-0--------3----0------|
 |
Gtr 2
e|----------------------|----------------------|
B|----------------------|----------------------|
G|----------------------|----------------------|
D|----------------------|----------------------|
A|-0--------6------5----|-0---0---0------------|
D|-0--------5------5----|-0---0---0------------|

Gtr 1
e|----------------------|----------------------|
B|----------------------|----------------------|
G|----------------------|----------------------|
D|-------5--6------5----|-------5----------5---|
A|----5-----------------|----5---------------6-|
D|-0--------------------|-0--------3----0------|
 |
Gtr 2
e|----------------------|----------------------|
B|----------------------|----------------------|
G|----------------------|----------------------|
D|----------------------|----------------------|
A|-0--------6------5----|-0--0-----0-----------|
D|-0--------5------5----|-0--0-----0-----------|


Gtr 1
e|----------------------|----------------------|
B|----------------------|----------------------|
G|----------------------|----------------------|
D|-------5--6------5----|-------5----------5---|
A|----5-----------------|----5---------------6-|
D|-0--------------------|-0--------3----0------|
 |
Gtr 2
e|----------------------|----------------------|
B|----------------------|----------------------|
G|----------------------|----------------------|
D|----------------------|----------------------|
A|-0--0-----0-----------|-6--5-----0-----------|
D|-0--0-----0-----------|-6--5-----0-----------|

3/4
Gtr 1
e|---------------|
B|---------------|
G|---------------|
D|---------------|
A|---------------|
D|---------------|
 |
Gtr 2
e|---------------|
B|---------------|
G|---------------|
D|---------------|
A|-6--5----------|
D|-6--5----------|

Intro Part 2 [0:38-1:15]
 Fast Rock Q=180
4/4
Gtr 1 & Gtr 2
                                   3x
e|---------------------------------||
B|---------------------------------||
G|---------------------------------||
D|---------------------------------||
A|---------------------------------||
D|-0-0-0-0-0-0-0-0-0-0-0-0-0-0-0-0-||

e|---------------------------------|
B|---------------------------------|
G|---------------------------------|
D|---------------------------------|
A|---------------------------------|
D|-12-/--/--/--/--/--/--/--/--/--0-|

Intro 2 Riff 2 (to be used again)
           4x
e|-----------------------------------------|------------------------------------------|
B|o----------------------------------------|------------------------------------------|
G|-----------------------------------------|------------------------------------------|
D|-----------------------------------------|------------------------------------------|
A|o----------------------------------------|------------------------------------------|
D|--1--1--0----0----0----0----0----0----0--|--0----0----0----0----0----0----0----0----|
PM  .  .  .    .    .    .    .    .    .     .    .    .    .    .    .    .    .
e|-----------------------------------------|------------------------------------------|
B|-----------------------------------------|------------------------------------------|
G|-----------------------------------------|------------------------------------------|
D|-----------------------------------------|------------------------------------------|
A|----------------------------1----1-------|-------1----1-----------------------------|
D|--1--1--0----0----0----0----1----1----0--|--0----1----1----0----2-2-2--3-3-3--0-0-0-|
PM  .  .  .    .    .    .              .     .              .    . . .  . . .  . . .

                                            2/4
e|-----------------------------------------|--------------------|---------------------|
B|-----------------------------------------|--------------------|--------------------o|
G|-----------------------------------------|--------------------|---------------------|
D|-----------------------------------------|--------------------|---------------------|
A|----------------------------1----1-------|-------1----1-------|--------------------o|
D|--1--1--0----0----0----0----1----1----0--|--0----1----1----0--|---------------------|
    .  .  .    .    .    .              .     .              .
                                                                 {1, 2}


Intro Part 3 [1:15-1:40]
4/4
e|-----------------------------------------|
B|-----------------------------------------|
G|-----------------------------------------|
D|-----------------------------------------|
A|---3h---0----5h---0----3h---0----5h---0--|
D|---3h---0----5h---0----3h---0----5h---0--|

Both Guitars Play Whole Sequence then plays whole sequence again without the second lot
shown) of the first 2 riffs below.

       REST                                 3x
e||-----------------------------------------||
B||-----------------------------------------||
G||-----------------------------------------||
D||-----------------------------------------||
A||--0----R----0--3-------------------------||
D||--0----R----0--3--------0--0--0--0--0--0-||
PM                        .  .  .  .  .  .

e|-----------------------------------------|
B|-----------------------------------------|
G|--7--7--------5--5/-------10--10---------|
D|--7--7--------5--5/-------10--10---------|
A|--5--5--------3--5/--------8---8---------|
D|-----------------------------------------|
                                            3x
e||-----------------------------------------||
B||-----------------------------------------||
G||-----------------------------------------|| without
D||-----------------------------------------||
A||--0----R----0--3-------------------------||
D||--0----R----0--3--------0--0--0--0--0--0-||
PM                        .  .  .  .  .  .

e|-----------------------------------------|
B|-----------------------------------------|
G|--7--7--------5--5/-------10--10---------| without
D|--7--7--------5--5/-------10--10---------|
A|--5--5--------3--5/--------8---8---------|
D|-----------------------------------------|

3/4
e|----------------------------|----------------------------|
B|----------------------------|----------------------------|
G|--2------------3------------|--6------------7------------|
D|--2------------3------------|--6------------7------------|
A|--0------------1------------|--4------------5------------|
D|----------------------------|----------------------------|

4/4
e|-----------------------------------------------------------------------|
B|-----------------------------------------------------------------------|
G|-----------------------------------------------------------------------|
D|-----------------------------------------------------------------------|
A|--8----8--8--8----8--8--8----8--8--8----8--8--10-10-10-10-10-10-10-10--|
D|-----------------------------------------------------------------------|
PM  .    .  .  .    .  .  .    .  .  .    .  .   .  .  .  .  .  .  .  .

e|----------------------------------|
B|----------------------------------|
G|----------------------------------|
D|----------------------------------|
A|--8-8-8-8-8-8-8-8-8----R----------|
D|----------------------------------|


Verse [1:40-2:08] (All verses the same)
4/4
Gtr 1 & Gtr 2
e|----------------------------------|----------------------------------|
B|o---------------------------------|----------------------------------|
G|----------------------------------|----------------------------------|
D|--9-9-9-9-9-9---------------------|----------------------------------|
A|o-------------8-8-8-8-8-8-7-7-7-7-|-7-7-5-5-5-5-5-5-2-2-2-2-2-2------|
D|----------------------------------|-----------------------------3-3--|
PM  . . . . . . . . . . . . . . . .   . . . . . . . . . . . . . . . . . .

e|----------------------------------|----------------------------------|
B|----------------------------------|----------------------------------|
G|----------------------------------|----------------------------------|
D|----------------------------------|----------2-----------------------|
A|----------------------------------|-2--3--5-----5--3-2h3p2-0---------|
D|--2-2-2-2-2-2-2-2-2-2-2-2-2-2-2-2-|----------------------------------|
PM  . . . . . . . . . . . . . . . .   .  .  .     .  .

e|----------------------------------|----------------------------------|
B|----------------------------------|----------------------------------|
G|----------------------------------|----------------------------------|
D|----------------------------------|----------------------------------|
A|----------------------------------|----------------------------------|
D|--2-2-2-2-2-2-2-2-2-2-2-2-2-2-2-2-|-2-2-2-2-2-2-2-2-2-2-2-2-2-2-2-2--|
PM  . . . . . . . . . . . . . . . .   . . . . . . . . . . . . . . . . . .
    {Luck...                          Runs...
e|----------------------------------|----------------------------------|
B|----------------------------------|----------------------------------|
G|----------------------------------|----------------------------------|
D|----------------------------------|----------2-----------------------|
A|----------------------------------|-2--3--5-----5--3-2h3p2-0---------|
D|--2-2-2-2-2-2-2-2-2-2-2-2-2-2-2-2-|----------------------------------|
PM  . . . . . . . . . . . . . . . .   .  .  .     .  .
    Out}


Full Verse Kicks In
Guitar 1
e|----------------------------------|----------------------------------|
B|----------------------------------|----------------------------------|
G|----------------------------------|----------------------------------|
D|----------------------------------|----------------------------------|
A|----------------------------------|----------------------------------|
D|--2-2-2-2-2-2-2-2-2-2-2-2-2-2-2-2-|-2-2-2-2-2-2-2-2-2-2-2-2-2-2-2-2--|
PM  . . . . . . . . . . . . . . . .   . . . . . . . . . . . . . . . . . .
Guitar 2
e|----------------------------------|----------------------------------|
B|----------------------------------|----------------------------------|
G|----------------------------------|----------------------------------|
D|----------------------------------|----------------------------------|
A|----------------------------------|----------------------------------|
D|--2-------------------------------|-(2)------------------------------|
          {Crawled from the wreckage                        one more time

Guitar 1
e|----------------------------------|----------------------------------|
B|----------------------------------|----------------------------------|
G|----------------------------------|----------------------------------|
D|----------------------------------|----------------------------------|
A|----------------------------------|----------------------------------|
D|--3-3-3-3-3-3-3-3-3-3-3-3-3-3-3-3-|-3-3-3-3-3-3-3-3-3-3-3-3-3-3-3-3--|
PM  . . . . . . . . . . . . . . .   . . . . . . . . . . . . . . . . .
 |
Guitar 2
e|----------------------------------|----------------------------------|
B|----------------------------------|----------------------------------|
G|----------------------------------|----------------------------------|
D|----------------------------------|----------------------------------|
A|----------------------------------|----------------------------------|
D|--3-------------------------------|-(3)------------------------------|
                Horrific memories                      twist the mind

e|----------------------------------|----------------------------------|
B|----------------------------------|----------------------------------|
G|----------------------------------|----------------------------------|
D|----------------------------------|----------------------------------|
A|----------------------------------|----------------------------------|
D|--2-2-2-2-2-2-2-2-2-2-2-2-2-2-2-2-|-2-2-2-2-2-2-2-2-2-2-2-2-2-2-2-2--|
PM  . . . . . . . . . . . . . . . .   . . . . . . . . . . . . . . . .
 |
Guitar 2
e|----------------------------------|----------------------------------|
B|----------------------------------|----------------------------------|
G|----------------------------------|----------------------------------|
D|----------------------------------|----------------------------------|
A|----------------------------------|----------------------------------|
D|--2-------------------------------|--2-------------------------------|
                     Dark, rugged,               cold and hard to turn

e|----------------------------------|----------------------------------|
B|----------------------------------|----------------------------------|
G|----------------------------------|----------------------------------|
D|----------------------------------|----------------------------------|
A|----------------------------------|----------------------------------|
D|--3-3-3-3-3-3-3-3-3-3-3-3-3-3-3-3-|-3-3-3-3-3-3-3-3-3-3-3-3-3-3-3-3--|
PM  . . . . . . . . . . . . . . .   . . . . . . . . . . . . . . . . .
 |
Guitar 2
e|----------------------------------|----------------------------------|
B|----------------------------------|----------------------------------|
G|----------------------------------|----------------------------------|
D|----------------------------------|----------------------------------|
A|----------------------------------|----------------------------------|
D|--3-------------------------------|--3-------------------------------|
              Path of destruction,                        feel it burn

Guitar 1
e|----------------------------------|----------------------------------|
B|----------------------------------|----------------------------------|
G|----------------------------------|----------------------------------|
D|----------------------------------|----------------------------------|
A|--2-2-2-2-2-2---------------------|-2-2-2-2-2-2----------------------|
D|--------------2-2-2-2-2-2-3-3-3-3-|-------------2-2-2-2-2-2-3-3-3-3--|
PM   . . . . . . . . . . . . . . .    . . . . . . . . . . . . . . . .
 |
Guitar 2
e|----------------------------------|----------------------------------|
B|----------------------------------|----------------------------------|
G|--4-------------------------------|--4-------------------------------|
D|--4-----------2-----------3-------|--4----------2-----------3--------|
A|--2-----------2-----------3-------|--2----------2-----------3--------|
D|--------------2-----------3-------|-------------2-----------3--------|
       Still life                      Incarnation

Guitar 1
e|----------------------------------|----------------------------------|
B|----------------------------------|----------------------------------|
G|----------------------------------|----------------------------------|
D|----------------------------------|----------------------------------|
A|--2-2-2-2-2-2---------------------|-2-2-2-2-2-2----------------------|
D|--------------2-2-2-2-2-2-3-3-3-3-|-------------2-2-2-2-2-2-3-3-3-3--|
PM   . . . . . . . . . . . . . . .    . . . . . . . . . . . . . . . . .
 |
Guitar 2
e|----------------------------------|----------------------------------|
B|----------------------------------|---------------------------------o|
G|--4-------------------------------|--4-------------------------------|
D|--4-----------2-----------3-------|--4----------2-----------3--------|
A|--2-----------2-----------3-------|--2----------2-----------3-------o|
D|--------------2-----------3-------|-------------2-----------3--------|
       Still life                      Infamy


Pre-Chorus [2:08] (All Pre-chorus’ the same)
4/4
Gtr 1 & Gtr 2
e|----------------------------------|----------------------------------|
B|o---------------------------------|----------------------------------|
G|----------------------------------|----------------------------------|
D|--2---2---2---2---2---0---0---0---|--2---2---2---2---2---0---0---0---|
A|o-2---2---2---2---2---0---0---0---|--2---2---2---2---2---0---0---0---|
D|--2---2---2---2---2---0---0---0---|--2---2---2---2---2---0---0---0---|
                  Hallucination                            Heresy
3/4
e|----------------------------|----------------------------|
B|----------------------------|----------------------------|
G|--2------------3------------|--6------------7------------|
D|--2------------3------------|--6------------7------------|
A|--0------------1------------|--4------------5------------|
D|----------------------------|----------------------------|
   Still You Run,               What’s to come?
4/4
e|----------------------------------|
B|----------------------------------|
G|----------------------------------|
D|----------------------------------|
A|--8-8-8-8-8-8-8-8-8----R----------|
D|----------------------------------|
    What’s today~
                                          3x
e||-----------------------------------------||
B||-----------------------------------------||
G||-----------------------------------------||
D||-----------------------------------------||
A||--0----R----0--3-------------------------||
D||--0----R----0--3--------0--0--0--0--0--0-||
PM                        .  .  .  .  .  .

e|-----------------------------------------|
B|-----------------------------------------|
G|--7--7--------5--5/-------10--10---------|
D|--7--7--------5--5/-------10--10---------|
A|--5--5--------3--5/--------8---8---------|
D|-----------------------------------------|

3/4
e|----------------------------|----------------------------|
B|----------------------------|----------------------------|
G|--2------------3------------|--6------------7------------|
D|--2------------3------------|--6------------7------------|
A|--0------------1------------|--4------------5------------|
D|----------------------------|----------------------------|

4/4
e|----------------------------------|
B|----------------------------------|
G|----------------------------------|
D|----------------------------------|
A|--8-8-8-8-8-8-8-8-8----R----------|
D|----------------------------------|


Chorus [2:24-2:49] (All choruses the same)
4/4

Play First Riff 3 Times per sequence, play sequence 4 times in total

Guitar 1                          x3
e|----------------------------------|
B|o---------------------------------|
G|--7------7--10--10---9---9---7----|
D|--7------7--10--10---9---9---7----|
A|o-5--R---5---8---8---7---7---5----|
D|----------------------------------|
Guitar 2
e|----------------------------------|
B|o---------------------------------|
G|----------------------------------|
D|--0------0---0---0---0---0---0----|
A|o-0--R---0---0---0---0---0---0----|
D|--0------0---0---0---0---0---0----|

 {1. 'Cause we hunt you down without mercy
      Hunt you down All
2.      Feel us breathe upon your face
Feel us shift, every
3.      Hunt you down without mercy,
Hunt you down All
  4.  Luck, Runs, Out,

Guitar 1
e|----------------------------------|
B|---------------------------------o|
G|----------------------------------|
D|----------------------------------|
A|---------------------------------o|
D|-10--10--R---9---9---7---7--(7)---|
Guitar 2
e|----------------------------------|
B|---------------------------------o|
G|----------------------------------|
D|----------------------------------|
A|-10--10------9---9---7---7--(7)--o|
D|-10--10--R---9---9---7---7--(7)---|


 1.    Nightmare Long
 2.   move we trace
 3.   nightmare long, yeah
 4.   but you crawl but in, but your

Guitar 1 & 2
e|----------------------------------|
B|----------------------------------|
G|----------------------------------|
D|--1-----------1-----------1-------|
A|--1-----------1-----------1-------|
D|--1-----------1-----------1-------|

    Luck       Runs       Out-ah}

Continue from “Intro 2 Riff 2”,
      through “Verse”,
              “Pre-Chorus”
              “Chorus”
       and to:

Solo 1
 Guitar 2
    E  Q. E  E  E     E  S  S  E  S  S  E  S  S  S  S  S  S  x8  E  S  S  E  S  S  E  S  SS
e|----------------|------------------------------------------|--------------------------------|
B|----------------|o----------------------------------------o|--------------------------------|
G|----------------|------------------------------------------|--------------------------------|
D|--7--R--7-----8-|--7-----7--------5--------------7-----8---|--7-----7--------5--------------|
A|--7--------5----|o----8-----8--7-----8--7--6--5-----5-----o|-----8-----8--7-----8--7--6--5--|
D|--7-------------|------------------------------------------|--------------------------------|

     S  S  S  S  S  S  S  S  S  S  S  S  S  S  S  S  S  S  S  S  S  S  S  S
e|--------------------------------------------------------------------------------------------|
B|--------------------------------------------------------------------------------------------|
G|--------------------------------------------------------------------------------------------|
D|--12-12-12-12-12-12-12-12-12-12-12-12-12-12-0-0-12-12-12-12-0-0-12-12-0-0-------------------|
A|--------------------------------------------------------------------------------------------|
D|--------------------------------------------------------------------------------------------|

     S  S  S  S S S  S  S  S  S S S  S  S S S  S S  S S  S S S S S S S S S S S
e|--------------------------------------------------------------------------------------------|
B|--------------------------------------------------------------------------------------------|
G|--------------------------------------------------------------------------------------------|
D|--12-12-12-12-0-0-12-12-12-12-0-0-12-12-0-0-12-0-11-0-10-0-9-0-8-0-7-0-6-0-5----------------|
A|--------------------------------------------------------------------------------------------|
D|--------------------------------------------------------------------------------------------|

     E. S  S  S  E. S  E  Q   x3   E. S  S  S  E    H
e|-----------------------------|---------------------------------------------------------------|
B|o----------------------5----o|---------------------------------------------------------------|
G|-----------------------5-----|---------------------------------------------------------------|
D|---7--5--7--5--7--5--7-------|---7--5--7--5--7---(7)-----------------------------------------|
A|o---------------------------o|---------------------------------------------------------------|
D|-----------------------------|---------------------------------------------------------------|

    S  S  S  S  S  S  S  S  S  S  S  S  S  S  S  S                                      x6
e|---------------------------------------------------------------------------------------------|
B|---------------------------------------------------------------------------------------------|
G|--4--2-----2--4--2--4--2-----2--4--2--4--2-----2---------------------------------------------|
D|--------4-----------------4-----------------4------------------------------------------------|
A|---------------------------------------------------------------------------------------------|
D|---------------------------------------------------------------------------------------------|

    S  S  S  S  S  S  E  S  S  E  S  S  E  S  S  S  S  S  S  S  S  S  S  S  S  S  S  S  S
e|---------------------------------------------------------------------------------------------|
B|-----------0--5--2--0--6--2--0--7--2--0--8--2--0--0--9--6--0--0--9--5--0--0--9--9--0--0------|
G|--4--2--4------------------------------------------------------------------------------------|
D|---------------------------------------------------------------------------------------------|
A|---------------------------------------------------------------------------------------------|
D|---------------------------------------------------------------------------------------------|

    S  S  S  S  S  T  T  S  S  S  S  S  S  S  S  S  S  S  S  S  S  S  S  S  S  S  S  S  S
e|--------------------------------------------------------------------------------------------|
B|--9--9--0--0-12--9--0-15-12--0--0-16-13--0--0-17-14--0--0-18-15--0--0-19-16--0--0-20-17-----|
G|--------------------------------------------------------------------------------------------|
D|--------------------------------------------------------------------------------------------|
A|--------------------------------------------------------------------------------------------|
D|--------------------------------------------------------------------------------------------|

    S  S  S  S  S  S  S  S  S  S  E  S  S  E  S  S  E  S  S  E  S  S  E  S  S E   Q     E
e|--------------------------------------------------------------------------------------------|
B|--0--0-21-18--0--0-22--0-22-19--0-22-19--0-22-19--0-22-19--0-22-19--0-22-19-0--22/--(22/)---|
G|--------------------------------------------------------------------------------------------|
D|--------------------------------------------------------------------------------------------|
A|--------------------------------------------------------------------------------------------|
D|--------------------------------------------------------------------------------------------|

     Tremelo Bar Goes Crazy
e|--------------------------------------------------------------------------------------------|
B|--(20)/\/\/\/\/\/\/\/\/\/\/\/\/\/\/\/\/\/\/\/\/\/\/\/\/\/\/\--------------------------------|
G|--------------------------------------------------------------------------------------------|
D|--------------------------------------------------------------------------------------------|
A|--------------------------------------------------------------------------------------------|
D|--------------------------------------------------------------------------------------------|

    Q      Q.   E    Q   Q   E    Q.   Q   Q.   E   Q   E    Q. 2/2   Q  Q
e|--------------------------------------------------------------|--------------|
B|-------------13--(13)----------13---13-------13-----------13--|----13--R-----|
G|-------------12--(12)------x---12---12-------12-------x---12--|----12--------|
D|---------5/------------5/--x-------------5/-------5/--x-------|--------------|
A|--7\----------------------------------------------------------|--------------|
D|--------------------------------------------------------------|--------------|

Solo 1 [4:28-5:21]
 Guitar 1

    E  Q. S  S  S  S  H   H  H  H  E  S  S  S  S  H   Q  H. H  E  S  S  S  S  H   H  H
 E
e|--------------------------------------------------------------------------------------------|
B|--------------------------------------------------------------------------------------------|
G|--------------------------------------------------------------------------------------------|
D|--7---------------------7\--------------------------7\--------------------------7/----------|
A|--7---------------------7\--------------------------7\--------------------------7/----------|
D|--7--R--0--0--0--0--0---7\-R--R--R--0--0--0--0--0---7\-R--R--R--0--0--0--0--0---7/-R--R--R--|

    S  S  S  S  H  H  H  Q  E  E  E
e|--------------------------------------------------------------------------------------------|
B|--------------------------------------------------------------------------------------------|
G|--------------------------------------------------------------------------------------------|
D|-----------------7--------3--3--3-----------------------------------------------------------|
A|-----------------7--------3--3--3-----------------------------------------------------------|
D|--0--0--0--0--0--7--R--R--3--3--3-----------------------------------------------------------|

    S  S  S  S  E  Q. Q  S  S  S  S  E  Q  S  S  E  E
    x8
e|--------------------------------------------------------------------------------------------|
B|--------------------------------------------------------------------------------------------|
G|--------------------------------------------------------------------------------------------|
D|-----------------7--7-----------------3--------3--3-----------------------------------------|
A|-----------------7--7-----------------3--------3--3-----------------------------------------|
D|--0--0--0--0--0--7--7--3--3--3--3--3--3--3--3--3--3-----------------------------------------|
PM  .  .  .  .  .        .  .  .  .  .     .  .

    Q. S  H  Q. S  H     Q. S  H   S S S S S S S S S S S S S S S S S S S S S S H  W S S
S
e|--------------------|------------------------------------------------------------------------|
B|--------------------|------------------------------------------------------------------------|
G|-----4-(4)-3--------|-----4-(4)--------------------------------------------------------------|
D|--2--4-(4)-3--3-(3)-|--2--4-(4)----------------------------------------------7---------------|
A|--2--2-(2)-1--3-(3)-|--2--2-(2)--7-7-7-7-7-7-7-7-7-7-7-7-7-7-7-7-7-7-7-7-7-7-7---------------|
D|--2-----------3-(3)-|--2---------7-7-7-7-7-7-7-7-7-7-7-7-7-7-7-7-7-7-7-7-7-7-7--R-0-0-0-0-0--|
PM                                 . . . . . . . . . . . . . . . . . . . .
    H  W  S  S  S  S  E  E  H  W  S  S  S  S  E  E  Q  S  S  S  S  E  E. E  E  S  S  E  E
e|--------------------------------------------------------------------------------------------|
B|--------------------------------------------------------------------------------------------|
G|--------------------------------------------------------------------------------------------|
D|--7-----0--0--0--0--0--7-(7)-------------------7-(7)----------------7--7--------------------|
A|--7-----0--0--0--0--0--7-(7)-------------------7-(7)----------------7--7--------------------|
D|--7--R--0--0--0--0--0--7-(7)-R--0--0--0--0--0--7-(7)-0--0--0--0--0--7--7--R--0--0--0--0-----|

    S  E  S  S  S  S  E  E.    Q
e|--------------------------|-----------------------------------------------------------------|
B|--------------------------|-----------------------------------------------------------------|
G|--------------------------|-----------------------------------------------------------------|
D|--7-(7)----------------7--|--7--------------------------------------------------------------|
A|--7-(7)----------------7--|--7--------------------------------------------------------------|
D|--7-(7)-0--0--0--0--0--7--|--7--------------------------------------------------------------|

Solo 2
 Guitar 2
    S  S  Q  S  S  Q  S  S  E  S  S  Q  S  S  Q  S  S  E
e|--------------------------------------------------------------------------------------------|
B|--------------------------------------------------------------------------------------------|
G|--3--2-----3--2-----3--2-----3--2-----3--2-----3--2-----------------------------------------|
D|--------2--------2--------2--------2--------2--------2--------------------------------------|
A|--------------------------------------------------------------------------------------------|
D|--------------------------------------------------------------------------------------------|

    S  S  Q  S  S  Q  S  S  E  S  S  Q  S  S  Q  S  S  E
e|--------------------------------------------------------------------------------------------|
B|--------------------------------------------------------------------------------------------|
G|--3--2-----3--2-----3--2-----3--2-----3--2-----3--2-----------------------------------------|
D|--------3--------3--------3--------3--------3--------3--------------------------------------|
A|--------------------------------------------------------------------------------------------|
D|--------------------------------------------------------------------------------------------|

    S  S  S  S  S  S  S  S  S  S  S  S  S  S  S  S   x4   S  S  Q  S  S  Q  S  S  S  S
e|--------------------------------------------------|------------------------------------------|
B|--------------------------------------------------|------------------------------------------|
G|--5--3--0--0--5--3--0--0--5--3--0--0--5--3--0--0--|-----3--2-----3--2-----3--2---------------|
D|--------------------------------------------------|-----------2--------2--------2--2---------|
A|--------------------------------------------------|------------------------------------------|
D|--------------------------------------------------|------------------------------------------|

    S  S  S  S  S  S  S  S  S  S  S  S  S  S  S  S
e|--------------------------------------------------------------------------------------------|
B|--------------------------------------------------------------------------------------------|
G|--3--2--------3--2--------3--2--------3--2--------------------------------------------------|
D|--------2--2--------2--2--------2--2--------2--2--------------------------------------------|
A|--------------------------------------------------------------------------------------------|
D|--------------------------------------------------------------------------------------------|

    S  S  S  S  S  S  S  S  S  S  S  S  S  S  S  S
   x2
e|--------------------------------------------------------------------------------------------|
B|--------------------------------------------------------------------------------------------|
G|--3--2--------3--2--------3--2--------3--2--------------------------------------------------|
D|--------3--3--------3--3--------3--3--------3--3--------------------------------------------|
A|--------------------------------------------------------------------------------------------|
D|--------------------------------------------------------------------------------------------|


    S  S  S  S  S  S  S  S  S  S  S  S  S  S  S  S
   x2
e|--------------------------------------------------------------------------------------------|
B|--------------------------------------------------------------------------------------------|
G|--5--3--0--0--5--3--0--0--5--3--0--0--5--3--0--0--------------------------------------------|
D|--------------------------------------------------------------------------------------------|
A|--------------------------------------------------------------------------------------------|
D|--------------------------------------------------------------------------------------------|

    S  S  S  S  S  S  S  S  S  S  S  S  S  S  S  S
   x2
e|--------------------------------------------------------------------------------------------|
B|--------------------------------------------------------------------------------------------|
G|--------------------------------------------------------------------------------------------|
D|--5--3--0--0--5--3--0--0--5--3--0--0--5--3--0--0--------------------------------------------|
A|--------------------------------------------------------------------------------------------|
D|--------------------------------------------------------------------------------------------|

    S  S  S  S   S  S  S   S  S  S   S  S   S  S  S  S   S  S  S  S  S  S  S   T    T
H
e|------------------------------------------------------------12-10----12-14--15tr-19tr--24\--|
B|-10--8-----8--10--8--10--8-----8--10--8--10--8-----8--10/12-------12------------------------|
G|--------9-------------------9-------------------9-------------------------------------------|
D|--------------------------------------------------------------------------------------------|
A|--------------------------------------------------------------------------------------------|
D|--------------------------------------------------------------------------------------------|






Luck. Runs. Out. 
Crawl from the wreckage one more time 
Horrific memory twists the mind 
Dark, rugged, cold and hard to turn 
Path of destruction, feel it burn 
Still life 
Incarnation 
Still life 
Infamy 

Hallucination 
Heresy 
Still you run, what's to come? 
What's to be? 

'Cause we hunt you down without mercy 
Hunt you down all nightmare long 
Feel us breathe upon your face 
Feel us shift, every move we trace 
Hunt you down without mercy 
Hunt you down all nightmare long, yeah 
Luck. Runs. 

You crawl back in 
But your luck runs out 

1.2. 

Luck. Runs. Out. 

The light that is not light is here 
To flush you out with your own fear 
You hide, you hide, but will be found 
Release your crypt without a sound 

Still life 
Immolation 
Still life 
Infamy 

Hallucination 
Heresy 
Still you run, what's to come? 
What's to be? 

'Cause we hunt you down without mercy 
Hunt you down all nightmare long 
Feel us breathe upon your face 
Feel us shift, every move we trace 
Hunt you down without mercy 
Hunt you down all nightmare long 
Luck. Runs. 

You crawl back in 
But your luck runs out 

Then you crawl back in 
Into your obsession 
Never to return 
This is your confession 

Hunt you down without mercy 
Hunt you down all nightmare long 
Feel us breathe upon your face 
Feel us shift, every move we trace 
Hunt you down without mercy 
Hunt you down all nightmare long, yeah 
Luck. Runs. 

You crawl back in 
But your luck runs out 

Your luck runs out











Duration Legend
---------------
W - whole; H - half; Q - quarter; E - 8th; S - 16th; T - 32nd; X - 64th; a - acciaccatura
+ - note tied to previous; . - note dotted; .. - note double dotted
Duration letters will always appear directly above the note/fret number it represents
duration for.  Duration letters with no fret number below them represent rests.

Tablature Legend

 {}  - lyrics enclosed in brackets
 h   - hammer-on
 p   - pull-off
 b   - bend
 pb  - pre-bend
 r   - bend release (if no number after the r, then release immediately)
 /\  - slide into or out of (from/to "nowhere")
 s   - legato slide
 S   - shift slide
  - natural harmonic
[n]  - artificial harmonic
n(n) - tapped harmonic
 ~   - vibrato
 tr  - trill
 T   - tap
 TP  - trem. picking
 PM  - palm muting
\n/  - tremolo bar dip; n = amount to dip
 \n  - tremolo bar down
 n/  - tremolo bar up
/n\  - tremolo bar inverted dip
 =   - hold bend; also acts as connecting device for hammers/pulls
 <>  - volume swell (louder/softer)
 x   - on rhythm slash represents muted slash
 o   - on rhythm slash represents single note slash

Misc Legend
-----------
 |  - bar
||  - double bar
||o - repeat start
o|| - repeat end
*|  - double bar (ending)
 :  - bar (freetime)
 $  - Segno
 &  - Coda
Tempo markers -  = BPM(8/16=s8/s16), where s8 = swing 8ths, s16 = swing 16ths












---------------


version 3







Gtrs 1 & 3 (James)



     Clean                                                  
     E     E  E  E   Q    Q       E  E  E  E   E  E  E  E   
E||----------------------------|---------------------------|
B||----------------------------|---------------------------|
G||----------------------------|---------------------------|
D||-----------5--6~--L----5----|--------5------------5-----|
A||--------5-------------------|-----5------------------6--|
D||--0-------------------------|--0--------3~--L--0--------|


  E  E  E  E   Q    Q       E  E  E  E   E  E  E  E     E  E  E  E   Q    Q     
-------------------------|---------------------------|-------------------------|
-------------------------|---------------------------|-------------------------|
-------------------------|---------------------------|-------------------------|
--------5--6~--L----5----|--------5------------5-----|--------5--6~--L----5----|
-----5-------------------|-----5------------------6--|-----5-------------------|
--0----------------------|--0--------3~--L--0--------|--0----------------------|


  E  E  E  E   E  E  E  E     E  E  E  E   Q    Q     
---------------------------|-------------------------|
---------------------------|-------------------------|
---------------------------|-------------------------|
--------5------------5-----|--------5--6~--L----5----|
-----5------------------6--|-----5-------------------|
--0--------3~--L--0--------|--0----------------------|


  E  E  E  E   E  E  E  E     E  E  E  E   Q    Q     
---------------------------|-------------------------|
---------------------------|-------------------------|
---------------------------|-------------------------|
--------5------------5-----|--------5--6~--L----5----|
-----5------------------6--|-----5-------------------|
--0--------3~--L--0--------|--0----------------------|


  E  E  E  E   E  E  E  E     E  E  E  E   Q    Q     
---------------------------|-------------------------|
---------------------------|-------------------------|
---------------------------|-------------------------|
--------5------------5-----|--------5--6~--L----5----|
-----5------------------6--|-----5-------------------|
--0--------3~--L--0--------|--0----------------------|


  E  E  E  E   E  E  E  E     E  E  E  E   Q    Q     
---------------------------|-------------------------|
---------------------------|-------------------------|
---------------------------|-------------------------|
--------5------------5-----|--------5--6~--L----5----|
-----5------------------6--|-----5-------------------|
--0--------3~--L--0--------|--0----------------------|


  E  E  E  E   E  E  E  E     H.            
---------------------------|---------------|
---------------------------|---------------|
---------------------------|---------------|
--------5------------5-----|---------------|
-----5------------------6--|---------------|
--0--------3~--L--0--------|---------------|


  Distorted                                        
  >         PM > PM > PM > PM > PM > PM > PM > PM  
  S         S  S S  S S  S S  S S  S S  S S  S S   
--------------------------------------------------|
--------------------------------------------------|
--------------------------------------------------|
--------------------------------------------------|
--------------------------------------------------|
--0---------0--0-0--0-0--0-0--0-0--0-0--0-0--0-0--|


  > PM > PM > PM > PM > PM > PM > PM > PM  
  S S  S S  S S  S S  S S  S S  S S  S S   
------------------------------------------|
------------------------------------------|
------------------------------------------|
------------------------------------------|
------------------------------------------|
--0-0--0-0--0-0--0-0--0-0--0-0--0-0--0-0--|


  > PM > PM > PM > PM > PM > PM > PM > PM       NH              NH     
  S S  S S  S S  S S  S S  S S  S S  S S        H.              S E.   
------------------------------------------|---------------------------|
------------------------------------------|---------------------------|
------------------------------------------|---------------------------|
------------------------------------------|---------------------------|
------------------------------------------|---------------------------|
--0-0--0-0--0-0--0-0--0-0--0-0--0-0--0-0--|--<>12s------------<>3-0---|


  > PM PM >  PM >  PM >  PM    >  PM >  PM >  PM >  PM  
  S S  E  E  E  E  E  E  E     E  E  E  E  E  E  E  E   
----------------------------|--------------------------|
----------------------------|--------------------------|
----------------------------|--------------------------|
----------------------------|--------------------------|
----------------------------|--------------------------|
--2-1--0--0--0--0--0--0--0--|--0--0--0--0--0--0--0--0--|


  > PM PM >  PM >  PM >  PM    >  PM >  PM >  PM >  PM  
  S S  E  E  E  E  E  E  E     E  E  E  E  E  E  E  E   
----------------------------|--------------------------|
----------------------------|--------------------------|
----------------------------|--------------------------|
----------------------------|--------------------------|
----------------------------|--------------------------|
--2-1--0--0--0--0--0--0--0--|--0--0--0--0--0--0--0--0--|


  > PM PM >  PM >  PM >  PM    >  PM >  PM >  PM >  PM  
  S S  E  E  E  E  E  E  E     E  E  E  E  E  E  E  E   
----------------------------|--------------------------|
----------------------------|--------------------------|
----------------------------|--------------------------|
----------------------------|--------------------------|
----------------------------|--------------------------|
--2-1--0--0--0--0--0--0--0--|--0--0--0--0--0--0--0--0--|


  > PM PM >  PM >  PM >  PM    >  PM >  PM >  PM >  PM  
  S S  E  E  E  E  E  E  E     E  E  E  E  E  E  E  E   
----------------------------|--------------------------|
----------------------------|--------------------------|
----------------------------|--------------------------|
----------------------------|--------------------------|
----------------------------|--------------------------|
--2-1--0--0--0--0--0--0--0--|--0--0--0--0--0--0--0--0--|


  > PM PM PM PM PM >  >  PM    PM >  >  PM PM PM PM PM PM PM  
  S S  E  E  E  E  E  E  E     E  E  E  E  S  S  E  S  S  E   
----------------------------|--------------------------------|
----------------------------|--------------------------------|
----------------------------|--------------------------------|
-------------------1--1-----|-----1--1-----------------------|
-------------------1--1-----|-----1--1-----------------------|
--2-1--0--0--0--0--1--1--0--|--0--1--1--0--2--2--2--3--3--3--|


  > PM PM PM PM PM >  >  PM    PM >  >  PM PM PM PM PM PM PM  
  S S  E  E  E  E  E  E  E     E  E  E  E  S  S  E  S  S  E   
----------------------------|--------------------------------|
----------------------------|--------------------------------|
----------------------------|--------------------------------|
-------------------1--1-----|-----1--1-----------------------|
-------------------1--1-----|-----1--1-----------------------|
--2-1--0--0--0--0--1--1--0--|--0--1--1--0--2--2--2--3--3--3--|


  > PM PM PM PM PM >  >  PM    PM >  >  PM PM PM PM PM PM PM  
  S S  E  E  E  E  E  E  E     E  E  E  E  S  S  E  S  S  E   
----------------------------|--------------------------------|
----------------------------|--------------------------------|
----------------------------|--------------------------------|
-------------------1--1-----|-----1--1-----------------------|
-------------------1--1-----|-----1--1-----------------------|
--2-1--0--0--0--0--1--1--0--|--0--1--1--0--2--2--2--3--3--3--|


  > PM PM PM PM PM >  >  PM    PM >  >  PM PM PM PM PM PM PM  
  S S  E  E  E  E  E  E  E     E  E  E  E  S  S  E  S  S  E   
----------------------------|--------------------------------|
----------------------------|--------------------------------|
----------------------------|--------------------------------|
-------------------1--1-----|-----1--1-----------------------|
-------------------1--1-----|-----1--1-----------------------|
--2-1--0--0--0--0--1--1--0--|--0--1--1--0--2--2--2--3--3--3--|


  > PM PM PM PM PM >  >  PM    PM >  >  PM PM PM PM PM PM PM  
  S S  E  E  E  E  E  E  E     E  E  E  E  S  S  E  S  S  E   
----------------------------|--------------------------------|
----------------------------|--------------------------------|
----------------------------|--------------------------------|
-------------------1--1-----|-----1--1-----------------------|
-------------------1--1-----|-----1--1-----------------------|
--2-1--0--0--0--0--1--1--0--|--0--1--1--0--2--2--2--3--3--3--|


  > PM PM PM PM PM >  >  PM    PM >  >  PM PM PM PM PM PM PM  
  S S  E  E  E  E  E  E  E     E  E  E  E  S  S  E  S  S  E   
----------------------------|--------------------------------|
----------------------------|--------------------------------|
----------------------------|--------------------------------|
-------------------1--1-----|-----1--1-----------------------|
-------------------1--1-----|-----1--1-----------------------|
--2-1--0--0--0--0--1--1--0--|--0--1--1--0--2--2--2--3--3--3--|


  > PM PM PM PM PM >  >  PM    PM >  >  PM PM PM PM PM PM PM  
  S S  E  E  E  E  E  E  E     E  E  E  E  S  S  E  S  S  E   
----------------------------|--------------------------------|
----------------------------|--------------------------------|
----------------------------|--------------------------------|
-------------------1--1-----|-----1--1-----------------------|
-------------------1--1-----|-----1--1-----------------------|
--2-1--0--0--0--0--1--1--0--|--0--1--1--0--2--2--2--3--3--3--|


  > PM PM PM PM PM >  >  PM    PM >  >                    PM    PM    PM    PM  
  S S  E  E  E  E  E  E  E     E  E  E  H        E     E  E  E  E  E  E  E  E   
----------------------------|-----------------------|--------------------------|
----------------------------|-----------------------|--------------------------|
----------------------------|-----------------------|--------------------------|
-------------------1--1-----|-----1--1--------------|--3-----5-----3-----5-----|
-------------------1--1-----|-----1--1--------------|--3-----5-----3-----5-----|
--2-1--0--0--0--0--1--1--0--|--0--1--1--------------|--3--0--5--0--3--0--5--0--|


                  PM PM PM PM PM PM                    PM PM PM PM PM PM  
    Q    E  E  E  S  S  S  S  S  S       Q    E  E  E  S  S  S  S  S  S   
------------------------------------|------------------------------------|
------------------------------------|------------------------------------|
------------------------------------|------------------------------------|
------------3--L--------------------|------------3--L--------------------|
--3g5----5--3--L--------------------|--3g5----5--3--L--------------------|
----0----0--3--L--0--0--0--0--0--0--|----0----0--3--L--0--0--0--0--0--0--|


                  PM PM PM PM PM PM                               
    Q    E  E  E  S  S  S  S  S  S     E  Q    E  E    E   Q      
------------------------------------|----------------------------|
------------------------------------|----------------------------|
------------------------------------|----------------------------|
------------3--L--------------------|--7--7----5--5s--10--10\----|
--3g5----5--3--L--------------------|--5--5----3--3s---8---8\----|
----0----0--3--L--0--0--0--0--0--0--|----------------------------|


                  PM PM PM PM PM PM                    PM PM PM PM PM PM  
    Q    E  E  E  S  S  S  S  S  S       Q    E  E  E  S  S  S  S  S  S   
------------------------------------|------------------------------------|
------------------------------------|------------------------------------|
------------------------------------|------------------------------------|
------------3--L--------------------|------------3--L--------------------|
--3g5----5--3--L--------------------|--3g5----5--3--L--------------------|
----0----0--3--L--0--0--0--0--0--0--|----0----0--3--L--0--0--0--0--0--0--|


                  PM PM PM PM PM PM                               
    Q    E  E  E  S  S  S  S  S  S     E  Q    E  E    E   Q      
------------------------------------|----------------------------|
------------------------------------|----------------------------|
------------------------------------|----------------------------|
------------3--L--------------------|--7--7----5--5s--10--10\----|
--3g5----5--3--L--------------------|--5--5----3--3s---8---8\----|
----0----0--3--L--0--0--0--0--0--0--|----------------------------|


  >      >          >      >          PM PM PM PM PM PM PM PM PM PM PM PM  
  Q.     E  Q       Q.     E  Q       E  S  S  E  S  S  E  S  S  E  S  S   
-----------------|-----------------|--------------------------------------|
-----------------|-----------------|--------------------------------------|
-----------------|--6------7--L----|--------------------------------------|
--7------8--L----|--6------7--L----|--------------------------------------|
--7------8--L----|--4------5--L----|--8--8--8--8--8--8--8--8--8--8--8--8--|
--7------8--L----|-----------------|--------------------------------------|


   PM PM PM PM PM PM PM PM                   PM PM PM PM PM PM  
   S  S  S  S  S  S  S  S      Q    E  E  E  S  S  S  S  S  S   
--------------------------|------------------------------------|
--------------------------|------------------------------------|
--------------------------|------------------------------------|
--------------------------|------------3--L--------------------|
--10-10-10-10-10-10-10-10-|--3g5----5--3--L--------------------|
--------------------------|----0----0--3--L--0--0--0--0--0--0--|


                  PM PM PM PM PM PM                    PM PM PM PM PM PM  
    Q    E  E  E  S  S  S  S  S  S       Q    E  E  E  S  S  S  S  S  S   
------------------------------------|------------------------------------|
------------------------------------|------------------------------------|
------------------------------------|------------------------------------|
------------3--L--------------------|------------3--L--------------------|
--3g5----5--3--L--------------------|--3g5----5--3--L--------------------|
----0----0--3--L--0--0--0--0--0--0--|----0----0--3--L--0--0--0--0--0--0--|


                               >      >          >      >        
  E  Q    E  E    E   Q        Q.     E  Q       Q.     E  Q     
----------------------------|-----------------|-----------------|
----------------------------|-----------------|-----------------|
----------------------------|-----------------|--6------7--L----|
--7--7----5--5s--10--10\----|--7------8--L----|--6------7--L----|
--5--5----3--3s---8---8\----|--7------8--L----|--4------5--L----|
----------------------------|--7------8--L----|-----------------|


  > PM > PM > PM > PM  >            > PM > PM > PM > PM > PM > PM > PM > PM  
  S S  S S  S S  S S   E  Q.        S S  S S  S S  S S  S S  S S  S S  S S   
---------------------------------|------------------------------------------|
---------------------------------|------------------------------------------|
---------------------------------|------------------------------------------|
----------------------10---------|------------------------------------------|
--8-8--8-8--8-8--8-8---8---------|------------------------------------------|
---------------------------------|--2-2--2-2--2-2--2-2--2-2--2-2--2-2--2-2--|


  > PM > PM > PM > PM > PM > PM > PM > PM  
  S S  S S  S S  S S  S S  S S  S S  S S   
------------------------------------------|
------------------------------------------|
------------------------------------------|
------------------------------------------|
------------------------------------------|
--2-2--2-2--2-2--2-2--2-2--2-2--2-2--2-2--|


  > PM > PM > PM > PM > PM > PM > PM > PM    PM PM PM PM PM PM             
  S S  S S  S S  S S  S S  S S  S S  S S     E  E  E  E  E  E  S  S  S  S  
------------------------------------------|-------------------------------|
------------------------------------------|-------------------------------|
------------------------------------------|-------------------------------|
------------------------------------------|-----------2-------------------|
------------------------------------------|--2--3--5-----5--3--2h-3p-2p-0-|
--2-2--2-2--2-2--2-2--2-2--2-2--2-2--2-2--|-------------------------------|


  > PM > PM > PM > PM > PM > PM > PM > PM  
  S S  S S  S S  S S  S S  S S  S S  S S   
------------------------------------------|
------------------------------------------|
------------------------------------------|
------------------------------------------|
------------------------------------------|
--2-2--2-2--2-2--2-2--2-2--2-2--2-2--2-2--|


  > PM > PM > PM > PM > PM > PM > PM > PM  
  S S  S S  S S  S S  S S  S S  S S  S S   
------------------------------------------|
------------------------------------------|
------------------------------------------|
------------------------------------------|
------------------------------------------|
--2-2--2-2--2-2--2-2--2-2--2-2--2-2--2-2--|


  > PM > PM > PM > PM > PM > PM > PM > PM    PM PM PM PM PM PM             
  S S  S S  S S  S S  S S  S S  S S  S S     E  E  E  E  E  E  S  S  S  S  
------------------------------------------|-------------------------------|
------------------------------------------|-------------------------------|
------------------------------------------|-------------------------------|
------------------------------------------|-----------2-------------------|
------------------------------------------|--2--3--5-----5--3--2h-3p-2p-0-|
--2-2--2-2--2-2--2-2--2-2--2-2--2-2--2-2--|-------------------------------|


  W                   H.           Q       W                 
-------------------|--------------------|-------------------|
-------------------|--------------------|-------------------|
--4----------------|--L------------4----|--5----------------|
--x----------------|---------------x----|--x----------------|
--2----------------|--L------------2----|--3----------------|
-------------------|--------------------|-------------------|


  W                   W                   W                   W                 
-------------------|-------------------|-------------------|-------------------|
-------------------|-------------------|-------------------|-------------------|
--L----------------|--4----------------|--4----------------|--4----------------|
-------------------|--x----------------|--x----------------|--x----------------|
--L----------------|--2----------------|--2----------------|--2----------------|
-------------------|-------------------|-------------------|-------------------|


  H.           Q        Q.     Q.     Q       Q.     Q.     Q     
---------------------|---------------------|---------------------|
---------------------|---------------------|---------------------|
--5------------------|--4------------------|--4------------------|
--x------------------|--4------2------3----|--4------2------3----|
--3------------------|--2------2------3----|--2------2------3----|
---------------x\----|---------2------3----|---------2------3----|


                                              >  PM PM PM >  PM PM PM  
  Q.     Q.     Q       Q.     Q.     Q       E  E  E  E  E  E  E  E   
---------------------|---------------------|--------------------------|
---------------------|---------------------|--------------------------|
--4------------------|--4------------------|--------------------------|
--4------2------3----|--4------2------3----|--2--2--2--2--2--0--0--0--|
--2------2------3----|--2------2------3----|--2--2--2--2--2--0--0--0--|
---------2------3----|---------2------3----|--2--2--2--2--2--0--0--0--|


  >  PM PM PM >  PM PM PM    >      >          >      >        
  E  E  E  E  E  E  E  E     Q.     E  Q       Q.     E  Q     
--------------------------|-----------------|-----------------|
--------------------------|-----------------|-----------------|
--------------------------|-----------------|--6------7--L----|
--2--2--2--2--2--0--0--0--|--7------8--L----|--6------7--L----|
--2--2--2--2--2--0--0--0--|--7------8--L----|--4------5--L----|
--2--2--2--2--2--0--0--0--|--7------8--L----|-----------------|


  > PM > PM > PM > PM  >                            PM PM PM PM PM PM  
  S S  S S  S S  S S   E  Q.          Q    E  E  E  S  S  S  S  S  S   
---------------------------------|------------------------------------|
---------------------------------|------------------------------------|
---------------------------------|------------------------------------|
----------------------10---------|------------3--L--------------------|
--8-8--8-8--8-8--8-8---8---------|--3g5----5--3--L--------------------|
---------------------------------|----0----0--3--L--0--0--0--0--0--0--|


                  PM PM PM PM PM PM                    PM PM PM PM PM PM  
    Q    E  E  E  S  S  S  S  S  S       Q    E  E  E  S  S  S  S  S  S   
------------------------------------|------------------------------------|
------------------------------------|------------------------------------|
------------------------------------|------------------------------------|
------------3--L--------------------|------------3--L--------------------|
--3g5----5--3--L--------------------|--3g5----5--3--L--------------------|
----0----0--3--L--0--0--0--0--0--0--|----0----0--3--L--0--0--0--0--0--0--|


                               >      >          >      >        
  E  Q    E  E    E   Q        Q.     E  Q       Q.     E  Q     
----------------------------|-----------------|-----------------|
----------------------------|-----------------|-----------------|
----------------------------|-----------------|--6------7--L----|
--7--7----5--5s--10--10\----|--7------8--L----|--6------7--L----|
--5--5----3--3s---8---8\----|--7------8--L----|--4------5--L----|
----------------------------|--7------8--L----|-----------------|


  > PM > PM > PM > PM  >                                       
  S S  S S  S S  S S   E  Q.        E  E  E   E   E  E  E  E   
---------------------------------|----------------------------|
---------------------------------|----------------------------|
---------------------------------|--7--7-----10--10--9--9--7--|
----------------------10---------|--x--x------x---x--x--x--x--|
--8-8--8-8--8-8--8-8---8---------|--5--5------8---8--7--7--5--|
---------------------------------|--0--0------0---0--0--0--0--|


  E  E  E   E   E  E  E  E     E  E  E   E   E  E  E  E   
----------------------------|----------------------------|
----------------------------|----------------------------|
--7--7-----10--10--9--9--7--|--7--7-----10--10--9--9--7--|
--x--x------x---x--x--x--x--|--x--x------x---x--x--x--x--|
--5--5------8---8--7--7--5--|--5--5------8---8--7--7--5--|
--0--0------0---0--0--0--0--|--0--0------0---0--0--0--0--|


  E  E  E  E  E  E  Q       E  E  E   E   E  E  E  E   
-------------------------|----------------------------|
-------------------------|----------------------------|
-------------------------|--7--7-----10--10--9--9--7--|
--5--5-----5--5--2--2----|--x--x------x---x--x--x--x--|
--3--3-----2--2--0--0----|--5--5------8---8--7--7--5--|
-------------------------|--0--0------0---0--0--0--0--|


  E  E  E   E   E  E  E  E     E  E  E   E   E  E  E  E   
----------------------------|----------------------------|
----------------------------|----------------------------|
--7--7-----10--10--9--9--7--|--7--7-----10--10--9--9--7--|
--x--x------x---x--x--x--x--|--x--x------x---x--x--x--x--|
--5--5------8---8--7--7--5--|--5--5------8---8--7--7--5--|
--0--0------0---0--0--0--0--|--0--0------0---0--0--0--0--|


  E  E  E  E  E  E  Q       E  E  E   E   E  E  E  E   
-------------------------|----------------------------|
-------------------------|----------------------------|
-------------------------|--7--7-----10--10--9--9--7--|
--5--5-----5--5--2--2----|--x--x------x---x--x--x--x--|
--3--3-----2--2--0--0----|--5--5------8---8--7--7--5--|
-------------------------|--0--0------0---0--0--0--0--|


  E  E  E   E   E  E  E  E     E  E  E   E   E  E  E  E   
----------------------------|----------------------------|
----------------------------|----------------------------|
--7--7-----10--10--9--9--7--|--7--7-----10--10--9--9--7--|
--x--x------x---x--x--x--x--|--x--x------x---x--x--x--x--|
--5--5------8---8--7--7--5--|--5--5------8---8--7--7--5--|
--0--0------0---0--0--0--0--|--0--0------0---0--0--0--0--|


  E  E  E  E  E  E  Q       E  E  E   E   E  E  E  E   
-------------------------|----------------------------|
-------------------------|----------------------------|
-------------------------|--7--7-----10--10--9--9--7--|
--5--5-----5--5--2--2----|--x--x------x---x--x--x--x--|
--3--3-----2--2--0--0----|--5--5------8---8--7--7--5--|
-------------------------|--0--0------0---0--0--0--0--|


  E  E  E   E   E  E  E  E     E  E  E   E   E  E  E  E   
----------------------------|----------------------------|
----------------------------|----------------------------|
--7--7-----10--10--9--9--7--|--7--7-----10--10--9--9--7--|
--x--x------x---x--x--x--x--|--x--x------x---x--x--x--x--|
--5--5------8---8--7--7--5--|--5--5------8---8--7--7--5--|
--0--0------0---0--0--0--0--|--0--0------0---0--0--0--0--|


                                                     > PM PM PM PM PM >  >  PM  
  E  E  E  E  E  E  Q       E  E  E  E  E  Q.        S S  E  E  E  E  E  E  E   
-------------------------|------------------------|----------------------------|
-------------------------|------------------------|----------------------------|
-------------------------|--3-----3-----3---------|----------------------------|
--5--5-----5--5--2--2----|--3-----3-----3---------|-------------------1--1-----|
--3--3-----2--2--0--0----|--1-----1-----1---------|-------------------1--1-----|
-------------------------|--1-----1-----1---------|--2-1--0--0--0--0--1--1--0--|


  PM >  >  PM PM PM PM PM PM PM    > PM PM PM PM PM >  >  PM  
  E  E  E  E  S  S  E  S  S  E     S S  E  E  E  E  E  E  E   
--------------------------------|----------------------------|
--------------------------------|----------------------------|
--------------------------------|----------------------------|
-----1--1-----------------------|-------------------1--1-----|
-----1--1-----------------------|-------------------1--1-----|
--0--1--1--0--2--2--2--3--3--3--|--2-1--0--0--0--0--1--1--0--|


  PM >  >  PM PM PM PM PM PM PM    > PM PM PM PM PM >  >  PM  
  E  E  E  E  S  S  E  S  S  E     S S  E  E  E  E  E  E  E   
--------------------------------|----------------------------|
--------------------------------|----------------------------|
--------------------------------|----------------------------|
-----1--1-----------------------|-------------------1--1-----|
-----1--1-----------------------|-------------------1--1-----|
--0--1--1--0--2--2--2--3--3--3--|--2-1--0--0--0--0--1--1--0--|


  PM >  >  PM PM PM PM PM PM PM    > PM PM PM PM PM >  >  PM  
  E  E  E  E  S  S  E  S  S  E     S S  E  E  E  E  E  E  E   
--------------------------------|----------------------------|
--------------------------------|----------------------------|
--------------------------------|----------------------------|
-----1--1-----------------------|-------------------1--1-----|
-----1--1-----------------------|-------------------1--1-----|
--0--1--1--0--2--2--2--3--3--3--|--2-1--0--0--0--0--1--1--0--|


  PM >  >                 ^  PM ^  PM ^  PM ^  PM  
  E  E  E  H        E     E  E  E  E  E  E  E  E   
-----------------------|--------------------------|
-----------------------|--------------------------|
-----------------------|--------------------------|
-----1--1--------------|--3-----5-----3-----5-----|
-----1--1--------------|--3-----5-----3-----5-----|
--0--1--1--------------|--3--0--5--0--3--0--5--0--|


                  PM PM PM PM PM PM                    PM PM PM PM PM PM  
    Q    E  E  E  S  S  S  S  S  S       Q    E  E  E  S  S  S  S  S  S   
------------------------------------|------------------------------------|
------------------------------------|------------------------------------|
------------------------------------|------------------------------------|
------------3--L--------------------|------------3--L--------------------|
--3g5----5--3--L--------------------|--3g5----5--3--L--------------------|
----0----0--3--L--0--0--0--0--0--0--|----0----0--3--L--0--0--0--0--0--0--|


                  PM PM PM PM PM PM                               
    Q    E  E  E  S  S  S  S  S  S     E  Q    E  E    E   Q      
------------------------------------|----------------------------|
------------------------------------|----------------------------|
------------------------------------|----------------------------|
------------3--L--------------------|--7--7----5--5s--10--10\----|
--3g5----5--3--L--------------------|--5--5----3--3s---8---8\----|
----0----0--3--L--0--0--0--0--0--0--|----------------------------|


                  PM PM PM PM PM PM                    PM PM PM PM PM PM  
    Q    E  E  E  S  S  S  S  S  S       Q    E  E  E  S  S  S  S  S  S   
------------------------------------|------------------------------------|
------------------------------------|------------------------------------|
------------------------------------|------------------------------------|
------------3--L--------------------|------------3--L--------------------|
--3g5----5--3--L--------------------|--3g5----5--3--L--------------------|
----0----0--3--L--0--0--0--0--0--0--|----0----0--3--L--0--0--0--0--0--0--|


                  PM PM PM PM PM PM                               
    Q    E  E  E  S  S  S  S  S  S     E  Q    E  E    E   Q      
------------------------------------|----------------------------|
------------------------------------|----------------------------|
------------------------------------|----------------------------|
------------3--L--------------------|--7--7----5--5s--10--10\----|
--3g5----5--3--L--------------------|--5--5----3--3s---8---8\----|
----0----0--3--L--0--0--0--0--0--0--|----------------------------|


  >      >          >      >          > PM > PM > PM > PM  >          
  Q.     E  Q       Q.     E  Q       S S  S S  S S  S S   E  Q.      
-----------------|-----------------|---------------------------------|
-----------------|-----------------|---------------------------------|
-----------------|--6------7--L----|---------------------------------|
--7------8--L----|--6------7--L----|----------------------10---------|
--7------8--L----|--4------5--L----|--8-8--8-8--8-8--8-8---8---------|
--7------8--L----|-----------------|---------------------------------|


  > PM > PM > PM > PM > PM > PM > PM > PM  
  S S  S S  S S  S S  S S  S S  S S  S S   
------------------------------------------|
------------------------------------------|
------------------------------------------|
------------------------------------------|
------------------------------------------|
--2-2--2-2--2-2--2-2--2-2--2-2--2-2--2-2--|


  > PM > PM > PM > PM > PM > PM > PM > PM  
  S S  S S  S S  S S  S S  S S  S S  S S   
------------------------------------------|
------------------------------------------|
------------------------------------------|
------------------------------------------|
------------------------------------------|
--2-2--2-2--2-2--2-2--2-2--2-2--2-2--2-2--|


  > PM > PM > PM > PM > PM > PM > PM > PM    PM PM PM PM PM PM             
  S S  S S  S S  S S  S S  S S  S S  S S     E  E  E  E  E  E  S  S  S  S  
------------------------------------------|-------------------------------|
------------------------------------------|-------------------------------|
------------------------------------------|-------------------------------|
------------------------------------------|-----------2-------------------|
------------------------------------------|--2--3--5-----5--3--2h-3p-2p-0-|
--2-2--2-2--2-2--2-2--2-2--2-2--2-2--2-2--|-------------------------------|


  > PM > PM > PM > PM > PM > PM > PM > PM  
  S S  S S  S S  S S  S S  S S  S S  S S   
------------------------------------------|
------------------------------------------|
------------------------------------------|
------------------------------------------|
------------------------------------------|
--2-2--2-2--2-2--2-2--2-2--2-2--2-2--2-2--|


  > PM > PM > PM > PM > PM > PM > PM > PM  
  S S  S S  S S  S S  S S  S S  S S  S S   
------------------------------------------|
------------------------------------------|
------------------------------------------|
------------------------------------------|
------------------------------------------|
--2-2--2-2--2-2--2-2--2-2--2-2--2-2--2-2--|


  > PM > PM > PM > PM > PM > PM > PM > PM    PM PM PM PM PM PM             
  S S  S S  S S  S S  S S  S S  S S  S S     E  E  E  E  E  E  S  S  S  S  
------------------------------------------|-------------------------------|
------------------------------------------|-------------------------------|
------------------------------------------|-------------------------------|
------------------------------------------|-----------2-------------------|
------------------------------------------|--2--3--5-----5--3--2h-3p-2p-0-|
--2-2--2-2--2-2--2-2--2-2--2-2--2-2--2-2--|-------------------------------|


  W                   H.           Q       W                 
-------------------|--------------------|-------------------|
-------------------|--------------------|-------------------|
--4----------------|--L------------4----|--5----------------|
--x----------------|---------------x----|--x----------------|
--2----------------|--L------------2----|--3----------------|
-------------------|--------------------|-------------------|


  W                   W                   W                   W                 
-------------------|-------------------|-------------------|-------------------|
-------------------|-------------------|-------------------|-------------------|
--L----------------|--4----------------|--4----------------|--4----------------|
-------------------|--x----------------|--x----------------|--x----------------|
--L----------------|--2----------------|--2----------------|--2----------------|
-------------------|-------------------|-------------------|-------------------|


  H.           Q        Q.     Q.     Q       Q.     Q.     Q     
---------------------|---------------------|---------------------|
---------------------|---------------------|---------------------|
--5------------------|--4------------------|--4------------------|
--x------------------|--4------2------3----|--4------2------3----|
--3------------------|--2------2------3----|--2------2------3----|
---------------x\----|---------2------3----|---------2------3----|


                                              >  PM PM PM >  PM PM PM  
  Q.     Q.     Q       Q.     Q.     Q       E  E  E  E  E  E  E  E   
---------------------|---------------------|--------------------------|
---------------------|---------------------|--------------------------|
--4------------------|--4------------------|--------------------------|
--4------2------3----|--4------2------3----|--2--2--2--2--2--0--0--0--|
--2------2------3----|--2------2------3----|--2--2--2--2--2--0--0--0--|
---------2------3----|---------2------3----|--2--2--2--2--2--0--0--0--|


  >  PM PM PM >  PM PM PM    >      >          >      >        
  E  E  E  E  E  E  E  E     Q.     E  Q       Q.     E  Q     
--------------------------|-----------------|-----------------|
--------------------------|-----------------|-----------------|
--------------------------|-----------------|--6------7--L----|
--2--2--2--2--2--0--0--0--|--7------8--L----|--6------7--L----|
--2--2--2--2--2--0--0--0--|--7------8--L----|--4------5--L----|
--2--2--2--2--2--0--0--0--|--7------8--L----|-----------------|


  > PM > PM > PM > PM  >                            PM PM PM PM PM PM  
  S S  S S  S S  S S   E  Q.          Q    E  E  E  S  S  S  S  S  S   
---------------------------------|------------------------------------|
---------------------------------|------------------------------------|
---------------------------------|------------------------------------|
----------------------10---------|------------3--L--------------------|
--8-8--8-8--8-8--8-8---8---------|--3g5----5--3--L--------------------|
---------------------------------|----0----0--3--L--0--0--0--0--0--0--|


                  PM PM PM PM PM PM                    PM PM PM PM PM PM  
    Q    E  E  E  S  S  S  S  S  S       Q    E  E  E  S  S  S  S  S  S   
------------------------------------|------------------------------------|
------------------------------------|------------------------------------|
------------------------------------|------------------------------------|
------------3--L--------------------|------------3--L--------------------|
--3g5----5--3--L--------------------|--3g5----5--3--L--------------------|
----0----0--3--L--0--0--0--0--0--0--|----0----0--3--L--0--0--0--0--0--0--|


                               >      >          >      >        
  E  Q    E  E    E   Q        Q.     E  Q       Q.     E  Q     
----------------------------|-----------------|-----------------|
----------------------------|-----------------|-----------------|
----------------------------|-----------------|--6------7--L----|
--7--7----5--5s--10--10\----|--7------8--L----|--6------7--L----|
--5--5----3--3s---8---8\----|--7------8--L----|--4------5--L----|
----------------------------|--7------8--L----|-----------------|


  > PM > PM > PM > PM  >                                       
  S S  S S  S S  S S   E  Q.        E  E  E   E   E  E  E  E   
---------------------------------|----------------------------|
---------------------------------|----------------------------|
---------------------------------|--7--7-----10--10--9--9--7--|
----------------------10---------|--x--x------x---x--x--x--x--|
--8-8--8-8--8-8--8-8---8---------|--5--5------8---8--7--7--5--|
---------------------------------|--0--0------0---0--0--0--0--|


  E  E  E   E   E  E  E  E     E  E  E   E   E  E  E  E   
----------------------------|----------------------------|
----------------------------|----------------------------|
--7--7-----10--10--9--9--7--|--7--7-----10--10--9--9--7--|
--x--x------x---x--x--x--x--|--x--x------x---x--x--x--x--|
--5--5------8---8--7--7--5--|--5--5------8---8--7--7--5--|
--0--0------0---0--0--0--0--|--0--0------0---0--0--0--0--|


                            This rocks!!!                         
  E  E  E  E  E  E  Q       E             E  E   E   E  E  E  E   
-------------------------|---------------------------------------|
-------------------------|---------------------------------------|
-------------------------|--7-------------7-----10--10--9--9--7--|
--5--5-----5--5--2--2----|--x-------------x------x---x--x--x--x--|
--3--3-----2--2--0--0----|--5-------------5------8---8--7--7--5--|
-------------------------|--0-------------0------0---0--0--0--0--|


  E  E  E   E   E  E  E  E     E  E  E   E   E  E  E  E   
----------------------------|----------------------------|
----------------------------|----------------------------|
--7--7-----10--10--9--9--7--|--7--7-----10--10--9--9--7--|
--x--x------x---x--x--x--x--|--x--x------x---x--x--x--x--|
--5--5------8---8--7--7--5--|--5--5------8---8--7--7--5--|
--0--0------0---0--0--0--0--|--0--0------0---0--0--0--0--|


  E  E  E  E  E  E  Q       E  E  E   E   E  E  E  E   
-------------------------|----------------------------|
-------------------------|----------------------------|
-------------------------|--7--7-----10--10--9--9--7--|
--5--5-----5--5--2--2----|--x--x------x---x--x--x--x--|
--3--3-----2--2--0--0----|--5--5------8---8--7--7--5--|
-------------------------|--0--0------0---0--0--0--0--|


  E  E  E   E   E  E  E  E     E  E  E   E   E  E  E  E   
----------------------------|----------------------------|
----------------------------|----------------------------|
--7--7-----10--10--9--9--7--|--7--7-----10--10--9--9--7--|
--x--x------x---x--x--x--x--|--x--x------x---x--x--x--x--|
--5--5------8---8--7--7--5--|--5--5------8---8--7--7--5--|
--0--0------0---0--0--0--0--|--0--0------0---0--0--0--0--|


  E  E  E  E  E  E  Q       E  E  E   E   E  E  E  E   
-------------------------|----------------------------|
-------------------------|----------------------------|
-------------------------|--7--7-----10--10--9--9--7--|
--5--5-----5--5--2--2----|--x--x------x---x--x--x--x--|
--3--3-----2--2--0--0----|--5--5------8---8--7--7--5--|
-------------------------|--0--0------0---0--0--0--0--|


  E  E  E   E   E  E  E  E     E  E  E   E   E  E  E  E   
----------------------------|----------------------------|
----------------------------|----------------------------|
--7--7-----10--10--9--9--7--|--7--7-----10--10--9--9--7--|
--x--x------x---x--x--x--x--|--x--x------x---x--x--x--x--|
--5--5------8---8--7--7--5--|--5--5------8---8--7--7--5--|
--0--0------0---0--0--0--0--|--0--0------0---0--0--0--0--|


  E  E  E  E  E  E  Q       E  E  E  E  E  Q.      
-------------------------|------------------------|
-------------------------|------------------------|
-------------------------|--3-----3-----3---------|
--5--5-----5--5--2--2----|--3-----3-----3---------|
--3--3-----2--2--0--0----|--1-----1-----1---------|
-------------------------|--1-----1-----1---------|


  > PM > PM > PM > PM > PM > PM > PM > PM               
  S S  S S  S S  S S  S S  S S  S S  S S     Q    Q     
------------------------------------------|------------|
------------------------------------------|------------|
------------------------------------------|------------|
------------------------------------------|--0---------|
------------------------------------------|--0---------|
--7-7--7-7--3-3--3-3--5-5--5-5--1-1--1-1--|--0---------|


  PM PM PM PM PM                                   
  S  S  S  S  E  Q.      Q       W                 
------------------------------|-------------------|
------------------------------|-------------------|
------------------------------|-------------------|
-----------------7\-----------|-------------------|
-----------------7\-----------|-------------------|
--0--0--0--0--0--7\-----------|-------------------|


  PM PM PM PM PM                                   
  S  S  S  S  E  Q.      Q       W                 
------------------------------|-------------------|
------------------------------|-------------------|
------------------------------|-------------------|
-----------------7\-----------|-------------------|
-----------------7\-----------|-------------------|
--0--0--0--0--0--7\-----------|-------------------|


  PM PM PM PM PM                                   
  S  S  S  S  E  Q.      Q       W                 
------------------------------|-------------------|
------------------------------|-------------------|
------------------------------|-------------------|
-----------------7\-----------|-------------------|
-----------------7\-----------|-------------------|
--0--0--0--0--0--7\-----------|-------------------|


  PM PM PM PM PM                             PM PM PM  
  S  S  S  S  E  Q.      Q       H        E  E  E  E   
------------------------------|-----------------------|
------------------------------|-----------------------|
------------------------------|-----------------------|
-----------------7\-----------|--------------3--2--1--|
-----------------7\-----------|--------------3--2--1--|
--0--0--0--0--0--7\-----------|--------------3--2--1--|


  PM PM PM PM PM                 PM PM PM PM PM      PM PM PM  
  S  S  S  S  E  Q.     E  E     S  S  S  S  E  Q    E  E  E   
------------------------------|-------------------------------|
------------------------------|-------------------------------|
------------------------------|-------------------------------|
-----------------7------7--7--|-----------------3----3--2--1--|
-----------------7------7--7--|-----------------3----3--2--1--|
--0--0--0--0--0--7------7--7--|--3--3--3--3--3--3----3--2--1--|


  PM PM PM PM PM                 PM PM PM PM PM      PM PM PM  
  S  S  S  S  E  Q.     E  E     S  S  S  S  E  Q    E  E  E   
------------------------------|-------------------------------|
------------------------------|-------------------------------|
------------------------------|-------------------------------|
-----------------7------7--7--|-----------------3----3--2--1--|
-----------------7------7--7--|-----------------3----3--2--1--|
--0--0--0--0--0--7------7--7--|--3--3--3--3--3--3----3--2--1--|


  PM PM PM PM PM                 PM PM PM PM PM      PM PM PM  
  S  S  S  S  E  Q.     E  E     S  S  S  S  E  Q    E  E  E   
------------------------------|-------------------------------|
------------------------------|-------------------------------|
------------------------------|-------------------------------|
-----------------7------7--7--|-----------------3----3--2--1--|
-----------------7------7--7--|-----------------3----3--2--1--|
--0--0--0--0--0--7------7--7--|--3--3--3--3--3--3----3--2--1--|


  PM PM PM PM PM                 PM PM PM PM PM      PM PM PM  
  S  S  S  S  E  Q.     E  E     S  S  S  S  E  Q    E  E  E   
------------------------------|-------------------------------|
------------------------------|-------------------------------|
------------------------------|-------------------------------|
-----------------7------7--7--|-----------------3----3--2--1--|
-----------------7------7--7--|-----------------3----3--2--1--|
--0--0--0--0--0--7------7--7--|--3--3--3--3--3--3----3--2--1--|


  PM PM PM PM PM                 PM PM PM PM PM      PM PM PM  
  S  S  S  S  E  Q.     E  E     S  S  S  S  E  Q    E  E  E   
------------------------------|-------------------------------|
------------------------------|-------------------------------|
------------------------------|-------------------------------|
-----------------7------7--7--|-----------------3----3--2--1--|
-----------------7------7--7--|-----------------3----3--2--1--|
--0--0--0--0--0--7------7--7--|--3--3--3--3--3--3----3--2--1--|


  PM PM PM PM PM                 PM PM PM PM PM      PM PM PM  
  S  S  S  S  E  Q.     E  E     S  S  S  S  E  Q    E  E  E   
------------------------------|-------------------------------|
------------------------------|-------------------------------|
------------------------------|-------------------------------|
-----------------7------7--7--|-----------------3----3--2--1--|
-----------------7------7--7--|-----------------3----3--2--1--|
--0--0--0--0--0--7------7--7--|--3--3--3--3--3--3----3--2--1--|


  PM PM PM PM PM                 PM PM PM PM PM      PM PM PM  
  S  S  S  S  E  Q.     E  E     S  S  S  S  E  Q    E  E  E   
------------------------------|-------------------------------|
------------------------------|-------------------------------|
------------------------------|-------------------------------|
-----------------7------7--7--|-----------------3----3--2--1--|
-----------------7------7--7--|-----------------3----3--2--1--|
--0--0--0--0--0--7------7--7--|--3--3--3--3--3--3----3--2--1--|


  PM PM PM PM PM                 PM PM PM PM PM      PM PM PM  
  S  S  S  S  E  Q.     E  E     S  S  S  S  E  Q    E  E  E   
------------------------------|-------------------------------|
------------------------------|-------------------------------|
------------------------------|-------------------------------|
-----------------7------7--7--|-----------------3----3--2--1--|
-----------------7------7--7--|-----------------3----3--2--1--|
--0--0--0--0--0--7------7--7--|--3--3--3--3--3--3----3--2--1--|


       PM                     PM                     PM              
  Q    E  E  H           Q    E  E  H           Q    E  E  H         
----------------------|----------------------|----------------------|
----------------------|----------------------|----------------------|
----------4--L--------|--3-------------------|----------4--L--------|
--2-------4--L--------|--3-------3--L--------|--2-------4--L--------|
--2-------2--L--------|--1-------3--L--------|--2-------2--L--------|
--2----0--------------|-------0--3--L--------|--2----0--------------|


       PM       PM PM PM         PM                     PM              
  Q    E  E  E  E  E  E     Q    E  E  H           Q    E  E  H         
-------------------------|----------------------|----------------------|
-------------------------|----------------------|----------------------|
--3----------------------|----------4--L--------|--3-------------------|
--3-------3--L--2--1--0--|--2-------4--L--------|--3-------3--L--------|
--1-------3--L--2--1--0--|--2-------2--L--------|--1-------3--L--------|
-------0--3--L--2--1--0--|--2----0--------------|-------0--3--L--------|


       PM                PM PM PM PM PM PM PM PM PM PM PM PM PM PM PM PM  
  Q    E  E  H           S  S  S  S  S  S  S  S  S  S  S  S  S  S  S  S   
----------------------|--------------------------------------------------|
----------------------|--------------------------------------------------|
----------4--L--------|--------------------------------------------------|
--2-------4--L--------|--------------------------------------------------|
--2-------2--L--------|--------------------------------------------------|
--2----0--------------|--7--7--7--7--5--5--5--5--3--3--3--3--1--1--1--1--|


  PM PM PM PM PM                                   
  S  S  S  S  E  Q.      Q                         
------------------------------|-------------------|
------------------------------|-------------------|
------------------------------|-------------------|
-----------------7\-----------|-------------------|
-----------------7\-----------|-------------------|
--0--0--0--0--0--7\-----------|-------------------|


  PM PM PM PM PM                                   
  S  S  S  S  E  Q.      Q                         
------------------------------|-------------------|
------------------------------|-------------------|
------------------------------|-------------------|
-----------------7\-----------|-------------------|
-----------------7\-----------|-------------------|
--0--0--0--0--0--7\-----------|-------------------|


  PM PM PM PM PM                                   
  S  S  S  S  E  Q.      Q                         
------------------------------|-------------------|
------------------------------|-------------------|
------------------------------|-------------------|
-----------------7\-----------|-------------------|
-----------------7\-----------|-------------------|
--0--0--0--0--0--7\-----------|-------------------|


  PM PM PM PM PM >        PM PM PM PM    PM >        >          
  S  S  S  S  E  E  Q     S  S  S  S     E  Q.       Q    Q     
--------------------------------------|------------------------|
--------------------------------------|------------------------|
--------------------------------------|------------------------|
-----------------7--L\----------------|-----7\------/7---------|
-----------------7--L\----------------|-----7\------/7---------|
--0--0--0--0--0--7--L\----0--0--0--0--|--0--7\------/7---------|


  PM PM PM PM PM >        PM PM PM PM    PM >        >          
  S  S  S  S  E  E  Q     S  S  S  S     E  Q.       Q    Q     
--------------------------------------|------------------------|
--------------------------------------|------------------------|
--------------------------------------|------------------------|
-----------------7--L\----------------|-----7\------/7---------|
-----------------7--L\----------------|-----7\------/7---------|
--0--0--0--0--0--7--L\----0--0--0--0--|--0--7\------/7---------|


                 PM                      PM PM PM PM  
  E   E  E  Q    E  E   E     E  Q    E  E  E  E  E   
---------------------------|-------------------------|
---------------------------|-------------------------|
---------------------------|-------------------------|
--7h--8--7----------7h--8--|--7----------------------|
--5------5--8-------5------|--5--8----5--------------|
------------0----0---------|-----0----0--0--0--0--0--|


                 PM                      PM PM PM PM  
  E   E  E  Q    E  E   E     E  Q    E  E  E  E  E   
---------------------------|-------------------------|
---------------------------|-------------------------|
---------------------------|-------------------------|
--7h--8--7----------7h--8--|--7----------------------|
--5------5--8-------5------|--5--8----5--------------|
------------0----0---------|-----0----0--0--0--0--0--|


                                         PM PM PM PM  
  E   E  E  Q    E  E  E     E   Q    E  E  E  E  E   
--------------------------|--------------------------|
--------------------------|--------------------------|
--------------------------|--------------------------|
--7h--8--7----------7-----|--7h--8----7--------------|
--5------5--8----5--8-----|--8---8----8--8--8--8--8--|
------------0----0--7-----|--7---7----7--7--7--7--7--|


                                         PM PM PM PM  
  E  E  E   Q    E  E  E     E   Q    E  E  E  E  E   
--------------------------|--------------------------|
--------------------------|--------------------------|
--------------------------|--------------------------|
--6-----6h--7----6--2-----|--2h--3----2--------------|
--7-----7---7----7--3-----|--3---3----3--3--3--3--0--|
--6-----6---6----6--2-----|--2---2----2--2--2--2--0--|


                 PM                      PM PM PM PM  
  E   E  E  Q    E  E   E     E  Q    E  E  E  E  E   
---------------------------|-------------------------|
---------------------------|-------------------------|
---------------------------|-------------------------|
--7h--8--7----------7h--8--|--7----------------------|
--5------5--8-------5------|--5--8----5--------------|
------------0----0---------|-----0----0--0--0--0--0--|


                 PM                      PM PM PM PM  
  E   E  E  Q    E  E   E     E  Q    E  E  E  E  E   
---------------------------|-------------------------|
---------------------------|-------------------------|
---------------------------|-------------------------|
--7h--8--7----------7h--8--|--7----------------------|
--5------5--8-------5------|--5--8----5--------------|
------------0----0---------|-----0----0--0--0--0--0--|


                                         PM PM PM PM  
  E   E  E  Q    E  E  E     E   Q    E  E  E  E  E   
--------------------------|--------------------------|
--------------------------|--------------------------|
--------------------------|--------------------------|
--7h--8--7----------7-----|--7h--8----7--------------|
--5------5--8----5--8-----|--8---8----8--8--8--8--8--|
------------0----0--7-----|--7---7----7--7--7--7--7--|


                                         PM PM PM PM  
  E  E  E   Q    E  E  E     E   Q    E  E  E  E  E   
--------------------------|--------------------------|
--------------------------|--------------------------|
--------------------------|--------------------------|
--6-----6h--7----6--2-----|--2h--3----2--------------|
--7-----7---7----7--3-----|--3---3----3--3--3--3--0--|
--6-----6---6----6--2-----|--2---2----2--2--2--2--0--|


  > PM > PM > PM > PM > PM > PM > PM > PM  
  S S  S S  S S  S S  S S  S S  S S  S S   
------------------------------------------|
------------------------------------------|
------------------------------------------|
------------------------------------------|
------------------------------------------|
--0-0--0-0--0-0--0-0--0-0--0-0--0-0--0-0--|


  > PM > PM > PM > PM > PM > PM > PM > PM  
  S S  S S  S S  S S  S S  S S  S S  S S   
------------------------------------------|
------------------------------------------|
------------------------------------------|
------------------------------------------|
------------------------------------------|
--0-0--0-0--0-0--0-0--0-0--0-0--0-0--0-0--|


  > PM > PM > PM > PM > PM > PM > PM > PM  
  S S  S S  S S  S S  S S  S S  S S  S S   
------------------------------------------|
------------------------------------------|
------------------------------------------|
------------------------------------------|
------------------------------------------|
--0-0--0-0--0-0--0-0--0-0--0-0--0-0--0-0--|


  > PM > PM > PM > PM > PM > PM > PM > PM  
  S S  S S  S S  S S  S S  S S  S S  S S   
------------------------------------------|
------------------------------------------|
------------------------------------------|
------------------------------------------|
------------------------------------------|
--0-0--0-0--0-0--0-0--0-0--0-0--0-0--0-0--|


  > PM > PM > PM > PM > PM > PM > PM > PM  
  S S  S S  S S  S S  S S  S S  S S  S S   
------------------------------------------|
------------------------------------------|
------------------------------------------|
------------------------------------------|
------------------------------------------|
--2-2--2-2--2-2--2-2--2-2--2-2--2-2--2-2--|


  > PM > PM > PM > PM > PM > PM > PM > PM  
  S S  S S  S S  S S  S S  S S  S S  S S   
------------------------------------------|
------------------------------------------|
------------------------------------------|
------------------------------------------|
------------------------------------------|
--2-2--2-2--2-2--2-2--2-2--2-2--2-2--2-2--|


  PM PM PM PM PM PM PM PM PM PM PM PM          >     >    >    >     
  S  S  S  S  S  S  S  S  S  S  S  S  Q        Q     Q    Q    Q     
--------------------------------------------|-----------------------|
--------------------------------------------|-----------------------|
--------------------------------------------|-----------------------|
--------------------------------------------|-----------------------|
--------------------------------------------|-----------------------|
--2--2--2--2--2--2--2--2--2--2--2--2--2S----|--9~----5----7----3----|


  PM PM PM PM                 PM PM PM PM               
  S  S  S  S  H.              S  S  S  S  H.            
---------------------------|---------------------------|
---------------------------|---------------------------|
---------------------------|---------------------------|
--------------2------------|--------------2------------|
--------------2------------|--------------2------------|
--2--2--2--2--2------------|--2--2--2--2--2------------|


  PM PM PM PM                 PM PM PM PM               
  S  S  S  S  H.              S  S  S  S  H.            
---------------------------|---------------------------|
---------------------------|---------------------------|
---------------------------|---------------------------|
--------------3------------|--------------3------------|
--------------3------------|--------------3------------|
--3--3--3--3--3------------|--3--3--3--3--3------------|


  PM PM PM PM                 PM PM PM PM               
  S  S  S  S  H.              S  S  S  S  H.            
---------------------------|---------------------------|
---------------------------|---------------------------|
--------------5------------|--------------5------------|
--------------5------------|--------------5------------|
--3--3--3--3--3------------|--3--3--3--3--3------------|
---------------------------|---------------------------|


  PM PM PM PM                 PM PM PM PM         PM PM PM  
  S  S  S  S  H.              S  S  S  S  Q    E  E  E  E   
---------------------------|-------------------------------|
---------------------------|-------------------------------|
---------------------------|-------------------------------|
--------------5------------|--------------5----L--5--4--3--|
--------------5------------|--------------5----L--5--4--3--|
--5--5--5--5--5------------|--5--5--5--5--5----L--5--4--3--|


  PM PM PM PM      PM PM PM PM         PM PM PM PM      PM PM PM PM       
  S  S  S  S  Q    S  S  S  S  Q       S  S  S  S  Q    S  S  S  S  Q     
------------------------------------|------------------------------------|
------------------------------------|------------------------------------|
------------------------------------|------------------------------------|
--------------2----------------2----|--------------2----------------2----|
--------------2----------------2----|--------------2----------------2----|
--2--2--2--2--2----2--2--2--2--2----|--2--2--2--2--2----2--2--2--2--2----|


  PM PM PM PM      PM PM PM PM         PM PM PM PM      PM PM PM PM       
  S  S  S  S  Q    S  S  S  S  Q       S  S  S  S  Q    S  S  S  S  Q     
------------------------------------|------------------------------------|
------------------------------------|------------------------------------|
------------------------------------|------------------------------------|
--------------3----------------3----|--------------3----------------3----|
--------------3----------------3----|--------------3----------------3----|
--3--3--3--3--3----3--3--3--3--3----|--3--3--3--3--3----3--3--3--3--3----|


  PM PM PM PM      PM PM PM PM         PM PM PM PM      PM PM PM PM       
  S  S  S  S  Q    S  S  S  S  Q       S  S  S  S  Q    S  S  S  S  Q     
------------------------------------|------------------------------------|
------------------------------------|------------------------------------|
--------------5----------------5----|--------------5----------------5----|
--------------5----------------5----|--------------5----------------5----|
--3--3--3--3--3----3--3--3--3--3----|--3--3--3--3--3----3--3--3--3--3----|
------------------------------------|------------------------------------|


  PM PM PM PM      PM PM PM PM         PM PM PM PM      PM PM PM PM PM  
  S  S  S  S  Q    S  S  S  S  Q       S  S  S  S  Q    S  S  E  E  E   
------------------------------------|----------------------------------|
------------------------------------|----------------------------------|
------------------------------------|----------------------------------|
--------------5----------------5----|--------------5----------5--4--3--|
--------------5----------------5----|--------------5----------5--4--3--|
--5--5--5--5--5----5--5--5--5--5----|--5--5--5--5--5----5--5--5--4--3--|


  PM PM PM PM      PM PM PM PM         PM PM PM PM      PM PM PM PM        
  S  S  S  S  Q    S  S  S  S  Q       S  S  S  S  Q    S  S  S  S  Q      
------------------------------------|-------------------------------------|
------------------------------------|-------------------------------------|
------------------------------------|-------------------------------------|
--------------2----------------2----|--------------2----------------------|
--------------2----------------2----|--------------2----------------------|
--2--2--2--2--2----2--2--2--2--2----|--2--2--2--2--2----2--2--2--2--x\----|


  > PM > PM > PM > PM > PM > PM > PM > PM  
  S S  S S  S S  S S  S S  S S  S S  S S   
------------------------------------------|
------------------------------------------|
------------------------------------------|
------------------------------------------|
------------------------------------------|
--0-0--0-0--0-0--0-0--0-0--0-0--0-0--0-0--|


  > PM > PM > PM > PM > PM > PM > PM > PM  
  S S  S S  S S  S S  S S  S S  S S  S S   
------------------------------------------|
------------------------------------------|
------------------------------------------|
------------------------------------------|
------------------------------------------|
--0-0--0-0--0-0--0-0--0-0--0-0--0-0--0-0--|


  > PM > PM > PM > PM > PM > PM > PM > PM  
  S S  S S  S S  S S  S S  S S  S S  S S   
------------------------------------------|
------------------------------------------|
------------------------------------------|
------------------------------------------|
------------------------------------------|
--0-0--0-0--0-0--0-0--0-0--0-0--0-0--0-0--|


  > PM > PM > PM > PM > PM > PM > PM > PM    > PM > PM                  
  S S  S S  S S  S S  S S  S S  S S  S S     S S  S S   Q    E  Q.      
------------------------------------------|----------------------------|
------------------------------------------|----------------------------|
------------------------------------------|------------10----L--9------|
------------------------------------------|------------10----L--9------|
------------------------------------------|-------------8----L--7------|
--0-0--0-0--0-0--0-0--0-0--0-0--0-0--0-0--|--0-0--0-0---8----L--7------|


                            PM PM > PM > PM > PM > PM > PM > PM  
  Q.     E  Q    Q       E  S  S  S S  S S  S S  S S  S S  S S   
----------------------|-----------------------------------------|
----------------------|-----------------------------------------|
--8------7--L----8----|--9--------------------------------------|
--8------7--L----8----|--9--------------------------------------|
--6------5--L----6----|--7--------------------------------------|
--6------5--L----6----|--7--0--0--0-0--0-0--0-0--0-0--0-0--0-0--|


  > PM > PM > PM > PM > PM > PM > PM > PM    > PM > PM                  
  S S  S S  S S  S S  S S  S S  S S  S S     S S  S S   Q    E  Q.      
------------------------------------------|----------------------------|
------------------------------------------|----------------------------|
------------------------------------------|------------10----L--9------|
------------------------------------------|------------10----L--9------|
------------------------------------------|-------------8----L--7------|
--0-0--0-0--0-0--0-0--0-0--0-0--0-0--0-0--|--0-0--0-0---8----L--7------|


                            PM PM > PM > PM > PM > PM > PM > PM  
  Q.     E  Q    Q       E  S  S  S S  S S  S S  S S  S S  S S   
----------------------|-----------------------------------------|
----------------------|-----------------------------------------|
--8------7--L----8----|--9--------------------------------------|
--8------7--L----8----|--9--------------------------------------|
--6------5--L----6----|--7--------------------------------------|
--6------5--L----6----|--7--0--0--0-0--0-0--0-0--0-0--0-0--0-0--|


  > PM > PM > PM > PM > PM > PM > PM > PM    > PM > PM                  
  S S  S S  S S  S S  S S  S S  S S  S S     S S  S S   Q    E  Q.      
------------------------------------------|----------------------------|
------------------------------------------|----------------------------|
------------------------------------------|------------10----L--9------|
------------------------------------------|------------10----L--9------|
------------------------------------------|-------------8----L--7------|
--0-0--0-0--0-0--0-0--0-0--0-0--0-0--0-0--|--0-0--0-0---8----L--7------|


  Q.     E  Q    Q       E  E  Q    E  Q.        Q.     E  Q    Q     
----------------------|-----------------------|----------------------|
----------------------|-----------------------|----------------------|
--8------7--L----8----|--9-----7----L--6------|--5------4--L----5----|
--8------7--L----8----|--9-----7----L--6------|--5------4--L----5----|
--6------5--L----6----|--7-----5----L--4------|--3------2--L----3----|
--6------5--L----6----|--7-----5----L--4------|--3------2--L----3----|


  > PM > PM > PM > PM > PM > PM > PM > PM  
  S S  S S  S S  S S  S S  S S  S S  S S   
------------------------------------------|
------------------------------------------|
------------------------------------------|
------------------------------------------|
------------------------------------------|
--0-0--0-0--0-0--0-0--0-0--0-0--0-0--0-0--|


  > PM > PM > PM > PM > PM > PM > PM > PM  
  S S  S S  S S  S S  S S  S S  S S  S S   
------------------------------------------|
------------------------------------------|
------------------------------------------|
------------------------------------------|
------------------------------------------|
--0-0--0-0--0-0--0-0--0-0--0-0--0-0--0-0--|


  > PM > PM > PM > PM > PM > PM > PM > PM    > PM > PM > PM > PM             
  S S  S S  S S  S S  S S  S S  S S  S S     S S  S S  S S  S S  E  E  Q     
------------------------------------------|---------------------------------|
------------------------------------------|---------------------------------|
------------------------------------------|---------------------------------|
------------------------------------------|----------------------3--2--1----|
------------------------------------------|----------------------3--2--1----|
--0-0--0-0--0-0--0-0--0-0--0-0--0-0--0-0--|--0-0--0-0--0-0--0-0--3--2--1----|


  > PM > PM > PM > PM > PM > PM > PM > PM    > PM > PM > PM > PM             
  S S  S S  S S  S S  S S  S S  S S  S S     S S  S S  S S  S S  E  E  Q     
------------------------------------------|---------------------------------|
------------------------------------------|---------------------------------|
------------------------------------------|---------------------------------|
------------------------------------------|----------------------3--2--1----|
------------------------------------------|----------------------3--2--1----|
--0-0--0-0--0-0--0-0--0-0--0-0--0-0--0-0--|--0-0--0-0--0-0--0-0--3--2--1----|


  > PM > PM > PM > PM > PM > PM > PM > PM    > PM > PM > PM > PM             
  S S  S S  S S  S S  S S  S S  S S  S S     S S  S S  S S  S S  E  E  Q     
------------------------------------------|---------------------------------|
------------------------------------------|---------------------------------|
------------------------------------------|---------------------------------|
------------------------------------------|----------------------3--2--1----|
------------------------------------------|----------------------3--2--1----|
--0-0--0-0--0-0--0-0--0-0--0-0--0-0--0-0--|--0-0--0-0--0-0--0-0--3--2--1----|


  > PM > PM > PM > PM > PM > PM > PM > PM    > PM > PM > PM > PM             
  S S  S S  S S  S S  S S  S S  S S  S S     S S  S S  S S  S S  E  E  Q     
------------------------------------------|---------------------------------|
------------------------------------------|---------------------------------|
------------------------------------------|---------------------------------|
------------------------------------------|----------------------3--2--1----|
------------------------------------------|----------------------3--2--1----|
--0-0--0-0--0-0--0-0--0-0--0-0--0-0--0-0--|--0-0--0-0--0-0--0-0--3--2--1----|


  > PM > PM > PM > PM > PM > PM > PM > PM    > PM > PM > PM > PM             
  S S  S S  S S  S S  S S  S S  S S  S S     S S  S S  S S  S S  E  E  Q     
------------------------------------------|---------------------------------|
------------------------------------------|---------------------------------|
------------------------------------------|---------------------------------|
------------------------------------------|----------------------3--2--1----|
------------------------------------------|----------------------3--2--1----|
--0-0--0-0--0-0--0-0--0-0--0-0--0-0--0-0--|--0-0--0-0--0-0--0-0--3--2--1----|


  > PM > PM > PM > PM > PM > PM > PM > PM    > PM > PM > PM > PM >  >       
  S S  S S  S S  S S  S S  S S  S S  S S     S S  S S  S S  S S  E  Q.      
------------------------------------------|--------------------------------|
------------------------------------------|--------------------------------|
------------------------------------------|--------------------------------|
------------------------------------------|----------------------3--2------|
------------------------------------------|----------------------3--2------|
--0-0--0-0--0-0--0-0--0-0--0-0--0-0--0-0--|--0-0--0-0--0-0--0-0--3--2------|


  W                   H           E  E  E   E   E  E  E  E   
-------------------|-----------|----------------------------|
-------------------|-----------|----------------------------|
-------------------|-----------|--7--7-----10--10--9--9--7--|
-------------------|-----------|--x--x------x---x--x--x--x--|
-------------------|-----------|--5--5------8---8--7--7--5--|
-------------------|-----------|--0--0------0---0--0--0--0--|


  E  E  E   E   E  E  E  E     E  E  E   E   E  E  E  E   
----------------------------|----------------------------|
----------------------------|----------------------------|
--7--7-----10--10--9--9--7--|--7--7-----10--10--9--9--7--|
--x--x------x---x--x--x--x--|--x--x------x---x--x--x--x--|
--5--5------8---8--7--7--5--|--5--5------8---8--7--7--5--|
--0--0------0---0--0--0--0--|--0--0------0---0--0--0--0--|


  E  E  E  E  E  E  Q       E  E  E   E   E  E  E  E   
-------------------------|----------------------------|
-------------------------|----------------------------|
-------------------------|--7--7-----10--10--9--9--7--|
--5--5-----5--5--2--2----|--x--x------x---x--x--x--x--|
--3--3-----2--2--0--0----|--5--5------8---8--7--7--5--|
-------------------------|--0--0------0---0--0--0--0--|


  E  E  E   E   E  E  E  E     E  E  E   E   E  E  E  E   
----------------------------|----------------------------|
----------------------------|----------------------------|
--7--7-----10--10--9--9--7--|--7--7-----10--10--9--9--7--|
--x--x------x---x--x--x--x--|--x--x------x---x--x--x--x--|
--5--5------8---8--7--7--5--|--5--5------8---8--7--7--5--|
--0--0------0---0--0--0--0--|--0--0------0---0--0--0--0--|


  E  E  E  E  E  E  Q       E  E  E   E   E  E  E  E   
-------------------------|----------------------------|
-------------------------|----------------------------|
-------------------------|--7--7-----10--10--9--9--7--|
--5--5-----5--5--2--2----|--x--x------x---x--x--x--x--|
--3--3-----2--2--0--0----|--5--5------8---8--7--7--5--|
-------------------------|--0--0------0---0--0--0--0--|


  E  E  E   E   E  E  E  E     E  E  E   E   E  E  E  E   
----------------------------|----------------------------|
----------------------------|----------------------------|
--7--7-----10--10--9--9--7--|--7--7-----10--10--9--9--7--|
--x--x------x---x--x--x--x--|--x--x------x---x--x--x--x--|
--5--5------8---8--7--7--5--|--5--5------8---8--7--7--5--|
--0--0------0---0--0--0--0--|--0--0------0---0--0--0--0--|


  E  E  E  E  E  E  Q       E  E  E   E   E  E  E  E   
-------------------------|----------------------------|
-------------------------|----------------------------|
-------------------------|--7--7-----10--10--9--9--7--|
--5--5-----5--5--2--2----|--x--x------x---x--x--x--x--|
--3--3-----2--2--0--0----|--5--5------8---8--7--7--5--|
-------------------------|--0--0------0---0--0--0--0--|


  E  E  E   E   E  E  E  E     E  E  E   E   E  E  E  E   
----------------------------|----------------------------|
----------------------------|----------------------------|
--7--7-----10--10--9--9--7--|--7--7-----10--10--9--9--7--|
--x--x------x---x--x--x--x--|--x--x------x---x--x--x--x--|
--5--5------8---8--7--7--5--|--5--5------8---8--7--7--5--|
--0--0------0---0--0--0--0--|--0--0------0---0--0--0--0--|


                                                     > PM PM PM PM PM >  >  PM  
  E  E  E  E  E  E  Q       E  E  E  E  E  Q.        S S  E  E  E  E  E  E  E   
-------------------------|------------------------|----------------------------|
-------------------------|------------------------|----------------------------|
-------------------------|--3-----3-----3---------|----------------------------|
--5--5-----5--5--2--2----|--3-----3-----3---------|-------------------1--1-----|
--3--3-----2--2--0--0----|--1-----1-----1---------|-------------------1--1-----|
-------------------------|--1-----1-----1---------|--2-1--0--0--0--0--1--1--0--|


  PM >  >  PM PM PM PM PM PM PM    > PM PM PM PM PM >  >  PM  
  E  E  E  E  S  S  E  S  S  E     S S  E  E  E  E  E  E  E   
--------------------------------|----------------------------|
--------------------------------|----------------------------|
--------------------------------|----------------------------|
-----1--1-----------------------|-------------------1--1-----|
-----1--1-----------------------|-------------------1--1-----|
--0--1--1--0--2--2--2--3--3--3--|--2-1--0--0--0--0--1--1--0--|


  PM >  >  PM PM PM PM PM PM PM                                     PM PM  
  E  E  E  E  S  S  E  S  S  E     W                   H.           E  E   
--------------------------------|-------------------|---------------------|
--------------------------------|-------------------|---------------------|
--------------------------------|-------------------|---------------------|
-----1--1-----------------------|--0----------------|--L------------5--1--|
-----1--1-----------------------|--0----------------|--L------------5--1--|
--0--1--1--0--2--2--2--3--3--3--|--0----------------|--L------------5--1--|


                                   PM PM                      
  W                   H.           E  E     W                 
-------------------|---------------------|-------------------|
-------------------|---------------------|-------------------|
-------------------|---------------------|-------------------|
--0----------------|--L------------5--1--|--0----------------|
--0----------------|--L------------5--1--|--0----------------|
--0----------------|--L------------5--1--|--0----------------|


               PM PM                                     PM PM  
  H.           E  E     W                   H.           E  E   
---------------------|-------------------|---------------------|
---------------------|-------------------|---------------------|
---------------------|-------------------|---------------------|
--L------------5--1--|--0----------------|--L------------5--1--|
--L------------5--1--|--0----------------|--L------------5--1--|
--L------------5--1--|--0----------------|--L------------5--1--|


  ^  PM ^  PM ^  PM ^  PM                PM    ^  PM ^  PM ^  PM ^  PM  
  E  E  E  E  E  E  E  E       Q      E  E     E  E  E  E  E  E  E  E   
--------------------------|-----------------|--------------------------|
--------------------------|-----------------|--------------------------|
--------------------------|-----------------|--------------------------|
--3-----5-----3-----5-----|-----------------|--3-----5-----3-----5-----|
--3-----5-----3-----5-----|--3g5----3g5-----|--3-----5-----3-----5-----|
--3--0--5--0--3--0--5--0--|----0------0--0--|--3--0--5--0--3--0--5--0--|


              PM    ^  PM ^  PM ^  PM ^  PM                PM  
    Q      E  E     E  E  E  E  E  E  E  E       Q      E  E   
-----------------|--------------------------|-----------------|
-----------------|--------------------------|-----------------|
-----------------|--------------------------|-----------------|
-----------------|--3-----5-----3-----5-----|-----------------|
--3g5----3g5-----|--3-----5-----3-----5-----|--3g5----3g5-----|
----0------0--0--|--3--0--5--0--3--0--5--0--|----0------0--0--|


  ^  PM ^  PM ^  PM ^  PM                              
  E  E  E  E  E  E  E  E       Q    E  E  E  E  E  E   
--------------------------|---------------------------|
--------------------------|---------------------------|
--------------------------|---------------------------|
--3-----5-----3-----5-----|---------------------5-----|
--3-----5-----3-----5-----|--3g5-------------------6--|
--3--0--5--0--3--0--5--0--|----0----0--3--L--0--------|


                                 PM       PM               PM       PM        
  Q    E  E  E  E  E  E     Q    E  E  E  E  E  E     Q    E  E  E  E  E  E   
-------------------------|-------------------------|-------------------------|
-------------------------|-------------------------|-------------------------|
--7----------------------|--7----------------------|--7----------------------|
--7----------------5-----|--7-------3--L-----5-----|--7-------3--L-----5-----|
--5-------------------6--|--5-------3--L--------6--|--5-------3--L--------6--|
-------0--3--L--0--------|-------0--3--L--0--------|-------0--3--L--0--------|


                                                         PM PM    >    
  E  E  E  E  Q    Q        W                   H        E  E  E  E    
-------------------------|-------------------|-----------------------||
-------------------------|-------------------|-----------------------||
-------------------------|-------------------|-----------------------||
--------5--6--L----5~----|--L----------------|--L--------------5--0--||
-----5-------------------|-------------------|--------------5-----0--||
--0----------------------|-------------------|-----------0--------0--||


Gtr 2 & 4 (Kirk)



     W                   W                   W                 
E||-------------------|-------------------|-------------------|
B||-------------------|-------------------|-------------------|
G||-------------------|-------------------|-------------------|
D||-------------------|-------------------|-------------------|
A||-------------------|-------------------|-------------------|
D||-------------------|-------------------|-------------------|


                      Distorted                                       
                                               |--3--|                
  W                   Q.        Q.     Q       E  E  E  H.            
-------------------|------------------------|------------------------|
-------------------|------------------------|------------------------|
-------------------|------------------------|------------------------|
-------------------|--0---------6------5----|--0--0------------------|
-------------------|--0---------6------5----|--0--0------------------|
-------------------|--0---------6------5----|--0--0------------------|


                        |--3--|                                      
  Q.     Q.     Q       E  E  E  H.              Q.     Q.     Q     
---------------------|------------------------|---------------------|
---------------------|------------------------|---------------------|
---------------------|------------------------|---------------------|
--0------6------5----|--0--0------------------|--0------6------5----|
--0------6------5----|--0--0------------------|--0------6------5----|
--0------6------5----|--0--0------------------|--0------6------5----|


                                                |--3--|                  
  E  E  E  H        E     Q.     Q.     Q       E  E  E  E  E  H         
-----------------------|---------------------|--------------------------|
-----------------------|---------------------|--------------------------|
-----------------------|---------------------|--------------------------|
--0--0--0--------------|--0------6------5----|--0--0--------0-----------|
--0--0--0--------------|--0------6------5----|--0--0--------0-----------|
--0--0--0--------------|--0------6------5----|--0--0--------0-----------|


  |--3--|                    |--3--|                    |--3--|            
  E  E  E  E  E  H           E  E  E  E  E  H           E  E  E  H         
--------------------------|--------------------------|--------------------|
--------------------------|--------------------------|--------------------|
--------------------------|--------------------------|--------------------|
--0--0--------0-----------|--6--5--------0-----------|--6--5--------------|
--0--0--------0-----------|--6--5--------0-----------|--6--5--------------|
--0--0--------0-----------|--6--5--------0-----------|--6--5--------------|


  > PM > PM > PM > PM > PM > PM > PM > PM  
  S S  S S  S S  S S  S S  S S  S S  S S   
------------------------------------------|
------------------------------------------|
------------------------------------------|
------------------------------------------|
------------------------------------------|
--0-0--0-0--0-0--0-0--0-0--0-0--0-0--0-0--|


  > PM > PM > PM > PM > PM > PM > PM > PM  
  S S  S S  S S  S S  S S  S S  S S  S S   
------------------------------------------|
------------------------------------------|
------------------------------------------|
------------------------------------------|
------------------------------------------|
--0-0--0-0--0-0--0-0--0-0--0-0--0-0--0-0--|


  > PM > PM > PM > PM > PM > PM > PM > PM      NH               NH       
  S S  S S  S S  S S  S S  S S  S S  S S       H.               S  E.    
------------------------------------------|-----------------------------|
------------------------------------------|-----------------------------|
------------------------------------------|-----------------------------|
------------------------------------------|-----------------------------|
------------------------------------------|-----------------------------|
--0-0--0-0--0-0--0-0--0-0--0-0--0-0--0-0--|--<>2s------------<>12-12\---|


  > PM PM >  PM >  PM >  PM    >  PM >  PM >  PM >  PM  
  S S  E  E  E  E  E  E  E     E  E  E  E  E  E  E  E   
----------------------------|--------------------------|
----------------------------|--------------------------|
----------------------------|--------------------------|
----------------------------|--------------------------|
----------------------------|--------------------------|
--2-1--0--0--0--0--0--0--0--|--0--0--0--0--0--0--0--0--|


  > PM PM >  PM >  PM >  PM    >  PM >  PM >  PM >  PM  
  S S  E  E  E  E  E  E  E     E  E  E  E  E  E  E  E   
----------------------------|--------------------------|
----------------------------|--------------------------|
----------------------------|--------------------------|
----------------------------|--------------------------|
----------------------------|--------------------------|
--2-1--0--0--0--0--0--0--0--|--0--0--0--0--0--0--0--0--|


  > PM PM >  PM >  PM >  PM    >  PM >  PM >  PM >  PM  
  S S  E  E  E  E  E  E  E     E  E  E  E  E  E  E  E   
----------------------------|--------------------------|
----------------------------|--------------------------|
----------------------------|--------------------------|
----------------------------|--------------------------|
----------------------------|--------------------------|
--2-1--0--0--0--0--0--0--0--|--0--0--0--0--0--0--0--0--|


  > PM PM >  PM >  PM >  PM    >  PM >  PM >  PM >  PM  
  S S  E  E  E  E  E  E  E     E  E  E  E  E  E  E  E   
----------------------------|--------------------------|
----------------------------|--------------------------|
----------------------------|--------------------------|
----------------------------|--------------------------|
----------------------------|--------------------------|
--2-1--0--0--0--0--0--0--0--|--0--0--0--0--0--0--0--0--|


  > PM PM PM PM PM >  >  PM    PM >  >  PM PM PM PM PM PM PM  
  S S  E  E  E  E  E  E  E     E  E  E  E  S  S  E  S  S  E   
----------------------------|--------------------------------|
----------------------------|--------------------------------|
----------------------------|--------------------------------|
-------------------1--1-----|-----1--1-----------------------|
-------------------1--1-----|-----1--1-----------------------|
--2-1--0--0--0--0--1--1--0--|--0--1--1--0--2--2--2--3--3--3--|


  > PM PM PM PM PM >  >  PM    PM >  >  PM PM PM PM PM PM PM  
  S S  E  E  E  E  E  E  E     E  E  E  E  S  S  E  S  S  E   
----------------------------|--------------------------------|
----------------------------|--------------------------------|
----------------------------|--------------------------------|
-------------------1--1-----|-----1--1-----------------------|
-------------------1--1-----|-----1--1-----------------------|
--2-1--0--0--0--0--1--1--0--|--0--1--1--0--2--2--2--3--3--3--|


  > PM PM PM PM PM >  >  PM    PM >  >  PM PM PM PM PM PM PM  
  S S  E  E  E  E  E  E  E     E  E  E  E  S  S  E  S  S  E   
----------------------------|--------------------------------|
----------------------------|--------------------------------|
----------------------------|--------------------------------|
-------------------1--1-----|-----1--1-----------------------|
-------------------1--1-----|-----1--1-----------------------|
--2-1--0--0--0--0--1--1--0--|--0--1--1--0--2--2--2--3--3--3--|


  > PM PM PM PM PM >  >  PM    PM >  >  PM PM PM PM PM PM PM  
  S S  E  E  E  E  E  E  E     E  E  E  E  S  S  E  S  S  E   
----------------------------|--------------------------------|
----------------------------|--------------------------------|
----------------------------|--------------------------------|
-------------------1--1-----|-----1--1-----------------------|
-------------------1--1-----|-----1--1-----------------------|
--2-1--0--0--0--0--1--1--0--|--0--1--1--0--2--2--2--3--3--3--|


  > PM PM PM PM PM >  >  PM    PM >  >  PM PM PM PM PM PM PM  
  S S  E  E  E  E  E  E  E     E  E  E  E  S  S  E  S  S  E   
----------------------------|--------------------------------|
----------------------------|--------------------------------|
----------------------------|--------------------------------|
-------------------1--1-----|-----1--1-----------------------|
-------------------1--1-----|-----1--1-----------------------|
--2-1--0--0--0--0--1--1--0--|--0--1--1--0--2--2--2--3--3--3--|


  > PM PM PM PM PM >  >  PM    PM >  >  PM PM PM PM PM PM PM  
  S S  E  E  E  E  E  E  E     E  E  E  E  S  S  E  S  S  E   
----------------------------|--------------------------------|
----------------------------|--------------------------------|
----------------------------|--------------------------------|
-------------------1--1-----|-----1--1-----------------------|
-------------------1--1-----|-----1--1-----------------------|
--2-1--0--0--0--0--1--1--0--|--0--1--1--0--2--2--2--3--3--3--|


  > PM PM PM PM PM >  >  PM    PM >  >  PM PM PM PM PM PM PM  
  S S  E  E  E  E  E  E  E     E  E  E  E  S  S  E  S  S  E   
----------------------------|--------------------------------|
----------------------------|--------------------------------|
----------------------------|--------------------------------|
-------------------1--1-----|-----1--1-----------------------|
-------------------1--1-----|-----1--1-----------------------|
--2-1--0--0--0--0--1--1--0--|--0--1--1--0--2--2--2--3--3--3--|


  > PM PM PM PM PM >  >  PM    PM >  >                 ^  PM ^  PM ^  PM ^  PM  
  S S  E  E  E  E  E  E  E     E  E  E  H        E     E  E  E  E  E  E  E  E   
----------------------------|-----------------------|--------------------------|
----------------------------|-----------------------|--------------------------|
----------------------------|-----------------------|--------------------------|
-------------------1--1-----|-----1--1--------------|--3-----5-----3-----5-----|
-------------------1--1-----|-----1--1--------------|--3-----5-----3-----5-----|
--2-1--0--0--0--0--1--1--0--|--0--1--1--------------|--3--0--5--0--3--0--5--0--|


                  PM PM PM PM PM PM                    PM PM PM PM PM PM  
    Q    E  E  E  S  S  S  S  S  S       Q    E  E  E  S  S  S  S  S  S   
------------------------------------|------------------------------------|
------------------------------------|------------------------------------|
------------------------------------|------------------------------------|
------------3--L--------------------|------------3--L--------------------|
--3g5----5--3--L--------------------|--3g5----5--3--L--------------------|
----0----0--3--L--0--0--0--0--0--0--|----0----0--3--L--0--0--0--0--0--0--|


                  PM PM PM PM PM PM                               
    Q    E  E  E  S  S  S  S  S  S     E  Q    E  E    E   Q      
------------------------------------|----------------------------|
------------------------------------|----------------------------|
------------------------------------|----------------------------|
------------3--L--------------------|--7--7----5--5s--10--10\----|
--3g5----5--3--L--------------------|--5--5----3--3s---8---8\----|
----0----0--3--L--0--0--0--0--0--0--|----------------------------|


                  PM PM PM PM PM PM                    PM PM PM PM PM PM  
    Q    E  E  E  S  S  S  S  S  S       Q    E  E  E  S  S  S  S  S  S   
------------------------------------|------------------------------------|
------------------------------------|------------------------------------|
------------------------------------|------------------------------------|
------------3--L--------------------|------------3--L--------------------|
--3g5----5--3--L--------------------|--3g5----5--3--L--------------------|
----0----0--3--L--0--0--0--0--0--0--|----0----0--3--L--0--0--0--0--0--0--|


                  PM PM PM PM PM PM                               
    Q    E  E  E  S  S  S  S  S  S     E  Q    E  E    E   Q      
------------------------------------|----------------------------|
------------------------------------|----------------------------|
------------------------------------|----------------------------|
------------3--L--------------------|--7--7----5--5s--10--10\----|
--3g5----5--3--L--------------------|--5--5----3--3s---8---8\----|
----0----0--3--L--0--0--0--0--0--0--|----------------------------|


  >      >          >      >          PM PM PM PM PM PM PM PM PM PM PM PM  
  Q.     E  Q       Q.     E  Q       E  S  S  E  S  S  E  S  S  E  S  S   
-----------------|-----------------|--------------------------------------|
-----------------|-----------------|--------------------------------------|
-----------------|--6------7--L----|--------------------------------------|
--7------8--L----|--6------7--L----|--------------------------------------|
--7------8--L----|--4------5--L----|--8--8--8--8--8--8--8--8--8--8--8--8--|
--7------8--L----|-----------------|--------------------------------------|


   PM PM PM PM PM PM PM PM                   PM PM PM PM PM PM  
   S  S  S  S  S  S  S  S      Q    E  E  E  S  S  S  S  S  S   
--------------------------|------------------------------------|
--------------------------|------------------------------------|
--------------------------|------------------------------------|
--------------------------|------------3--L--------------------|
--10-10-10-10-10-10-10-10-|--3g5----5--3--L--------------------|
--------------------------|----0----0--3--L--0--0--0--0--0--0--|


                  PM PM PM PM PM PM                    PM PM PM PM PM PM  
    Q    E  E  E  S  S  S  S  S  S       Q    E  E  E  S  S  S  S  S  S   
------------------------------------|------------------------------------|
------------------------------------|------------------------------------|
------------------------------------|------------------------------------|
------------3--L--------------------|------------3--L--------------------|
--3g5----5--3--L--------------------|--3g5----5--3--L--------------------|
----0----0--3--L--0--0--0--0--0--0--|----0----0--3--L--0--0--0--0--0--0--|


                               >      >          >      >        
  E  Q    E  E    E   Q        Q.     E  Q       Q.     E  Q     
----------------------------|-----------------|-----------------|
----------------------------|-----------------|-----------------|
----------------------------|-----------------|--6------7--L----|
--7--7----5--5s--10--10\----|--7------8--L----|--6------7--L----|
--5--5----3--3s---8---8\----|--7------8--L----|--4------5--L----|
----------------------------|--7------8--L----|-----------------|


  > PM > PM > PM > PM  >            >   >   >   >   >   >   >   >    
  S S  S S  S S  S S   E  Q.        S S S S S S S S S S S S S S S S  
---------------------------------|----------------------------------|
---------------------------------|----------------------------------|
---------------------------------|----------------------------------|
----------------------10---------|--9-9-9-9-9-9---------------------|
--8-8--8-8--8-8--8-8---8---------|--------------8-8-8-8-8-8-7-7-7-7-|
---------------------------------|----------------------------------|


  >   >   >   >   >   >   >   >      > PM > PM > PM > PM > PM > PM > PM > PM  
  S S S S S S S S S S S S S S S S    S S  S S  S S  S S  S S  S S  S S  S S   
----------------------------------|------------------------------------------|
----------------------------------|------------------------------------------|
----------------------------------|------------------------------------------|
----------------------------------|------------------------------------------|
--5-5-5-5-5-5-2-2-2-2-2-2---------|------------------------------------------|
--------------------------3-3-3-3-|--2-2--2-2--2-2--2-2--2-2--2-2--2-2--2-2--|


  PM PM PM PM PM PM               > PM > PM > PM > PM > PM > PM > PM > PM  
  E  E  E  E  E  E  S  S  S  S    S S  S S  S S  S S  S S  S S  S S  S S   
-------------------------------|------------------------------------------|
-------------------------------|------------------------------------------|
-------------------------------|------------------------------------------|
-----------2-------------------|------------------------------------------|
--2--3--5-----5--3--2h-3p-2p-0-|------------------------------------------|
-------------------------------|--2-2--2-2--2-2--2-2--2-2--2-2--2-2--2-2--|


  > PM > PM > PM > PM > PM > PM > PM > PM  
  S S  S S  S S  S S  S S  S S  S S  S S   
------------------------------------------|
------------------------------------------|
------------------------------------------|
------------------------------------------|
------------------------------------------|
--2-2--2-2--2-2--2-2--2-2--2-2--2-2--2-2--|


  > PM > PM > PM > PM > PM > PM > PM > PM    PM PM PM PM PM PM             
  S S  S S  S S  S S  S S  S S  S S  S S     E  E  E  E  E  E  S  S  S  S  
------------------------------------------|-------------------------------|
------------------------------------------|-------------------------------|
------------------------------------------|-------------------------------|
------------------------------------------|-----------2-------------------|
------------------------------------------|--2--3--5-----5--3--2h-3p-2p-0-|
--2-2--2-2--2-2--2-2--2-2--2-2--2-2--2-2--|-------------------------------|


  S S S S S S S S S S S S S S S S    S S S S S S S S S S S S S S S S  
----------------------------------|----------------------------------|
----------------------------------|----------------------------------|
--4-4-4-4-4-4-4-4-4-4-4-4-4-4-4-4-|--4-4-4-4-4-4-4-4-4-4-4-4-4-4-4-4-|
--x-x-x-x-x-x-x-x-x-x-x-x-x-x-x-x-|--x-x-x-x-x-x-x-x-x-x-x-x-x-x-x-x-|
--2-2-2-2-2-2-2-2-2-2-2-2-2-2-2-2-|--2-2-2-2-2-2-2-2-2-2-2-2-2-2-2-2-|
----------------------------------|----------------------------------|


  S S S S S S S S S S S S S S S S    S S S S S S S S S S S S S S S S  
----------------------------------|----------------------------------|
----------------------------------|----------------------------------|
----------------------------------|----------------------------------|
--3-3-3-3-3-3-3-3-3-3-3-3-3-3-3-3-|--3-3-3-3-3-3-3-3-3-3-3-3-3-3-3-3-|
--x-x-x-x-x-x-x-x-x-x-x-x-x-x-x-x-|--x-x-x-x-x-x-x-x-x-x-x-x-x-x-x-x-|
--3-3-3-3-3-3-3-3-3-3-3-3-3-3-3-3-|--3-3-3-3-3-3-3-3-3-3-3-3-3-3-3-3-|


  S S S S S S S S S S S S S S S S    S S S S S S S S S S S S S S S S  
----------------------------------|----------------------------------|
----------------------------------|----------------------------------|
--4-4-4-4-4-4-4-4-4-4-4-4-4-4-4-4-|----------------------------------|
--x-x-x-x-x-x-x-x-x-x-x-x-x-x-x-x-|--2-2-2-2-2-2-2-2-2-2-2-2-2-2-2-2-|
--2-2-2-2-2-2-2-2-2-2-2-2-2-2-2-2-|--x-x-x-x-x-x-x-x-x-x-x-x-x-x-x-x-|
----------------------------------|--2-2-2-2-2-2-2-2-2-2-2-2-2-2-2-2-|


  S S S S S S S S S S S S S S S S    S S S S S S S S S S S S S S S S  
----------------------------------|----------------------------------|
----------------------------------|----------------------------------|
--4-4-4-4-4-4-4-4-4-4-4-4-4-4-4-4-|----------------------------------|
--x-x-x-x-x-x-x-x-x-x-x-x-x-x-x-x-|--3-3-3-3-3-3-3-3-3-3-3-3-3-3-3-3-|
--2-2-2-2-2-2-2-2-2-2-2-2-2-2-2-2-|--x-x-x-x-x-x-x-x-x-x-x-x-x-x-x-x-|
----------------------------------|--3-3-3-3-3-3-3-3-3-3-3-3-3-3-3-3-|


  Q.     Q.     Q       Q.     Q.     Q       Q.     Q.     Q     
---------------------|---------------------|---------------------|
---------------------|---------------------|---------------------|
--4------------------|--4------------------|--4------------------|
--4------2------3----|--4------2------3----|--4------2------3----|
--2------2------3----|--2------2------3----|--2------2------3----|
---------2------3----|---------2------3----|---------2------3----|


                        >  PM PM PM >  PM PM PM    >  PM PM PM >  PM PM PM  
  Q.     Q.     Q       E  E  E  E  E  E  E  E     E  E  E  E  E  E  E  E   
---------------------|--------------------------|--------------------------|
---------------------|--------------------------|--------------------------|
--4------------------|--------------------------|--------------------------|
--4------2------3----|--2--2--2--2--2--0--0--0--|--2--2--2--2--2--0--0--0--|
--2------2------3----|--2--2--2--2--2--0--0--0--|--2--2--2--2--2--0--0--0--|
---------2------3----|--2--2--2--2--2--0--0--0--|--2--2--2--2--2--0--0--0--|


  >      >          >      >          > PM > PM > PM > PM  >          
  Q.     E  Q       Q.     E  Q       S S  S S  S S  S S   E  Q.      
-----------------|-----------------|---------------------------------|
-----------------|-----------------|---------------------------------|
-----------------|--6------7--L----|---------------------------------|
--7------8--L----|--6------7--L----|----------------------10---------|
--7------8--L----|--4------5--L----|--8-8--8-8--8-8--8-8---8---------|
--7------8--L----|-----------------|---------------------------------|


                  PM PM PM PM PM PM                    PM PM PM PM PM PM  
    Q    E  E  E  S  S  S  S  S  S       Q    E  E  E  S  S  S  S  S  S   
------------------------------------|------------------------------------|
------------------------------------|------------------------------------|
------------------------------------|------------------------------------|
------------3--L--------------------|------------3--L--------------------|
--3g5----5--3--L--------------------|--3g5----5--3--L--------------------|
----0----0--3--L--0--0--0--0--0--0--|----0----0--3--L--0--0--0--0--0--0--|


                  PM PM PM PM PM PM                               
    Q    E  E  E  S  S  S  S  S  S     E  Q    E  E    E   Q      
------------------------------------|----------------------------|
------------------------------------|----------------------------|
------------------------------------|----------------------------|
------------3--L--------------------|--7--7----5--5s--10--10\----|
--3g5----5--3--L--------------------|--5--5----3--3s---8---8\----|
----0----0--3--L--0--0--0--0--0--0--|----------------------------|


  >      >          >      >          > PM > PM > PM > PM  >          
  Q.     E  Q       Q.     E  Q       S S  S S  S S  S S   E  Q.      
-----------------|-----------------|---------------------------------|
-----------------|-----------------|---------------------------------|
-----------------|--6------7--L----|---------------------------------|
--7------8--L----|--6------7--L----|----------------------10---------|
--7------8--L----|--4------5--L----|--8-8--8-8--8-8--8-8---8---------|
--7------8--L----|-----------------|---------------------------------|


  E  E  E   E   E  E  E  E     E  E  E   E   E  E  E  E   
----------------------------|----------------------------|
----------------------------|----------------------------|
--7--7-----10--10--9--9--7--|--7--7-----10--10--9--9--7--|
--x--x------x---x--x--x--x--|--x--x------x---x--x--x--x--|
--5--5------8---8--7--7--5--|--5--5------8---8--7--7--5--|
--0--0------0---0--0--0--0--|--0--0------0---0--0--0--0--|


  E  E  E   E   E  E  E  E     E  E  E  E  E  E  Q     
----------------------------|-------------------------|
----------------------------|-------------------------|
--7--7-----10--10--9--9--7--|-------------------------|
--x--x------x---x--x--x--x--|--5--5-----5--5--2--2----|
--5--5------8---8--7--7--5--|--3--3-----2--2--0--0----|
--0--0------0---0--0--0--0--|-------------------------|


  E  E  E   E   E  E  E  E     E  E  E   E   E  E  E  E   
----------------------------|----------------------------|
----------------------------|----------------------------|
--7--7-----10--10--9--9--7--|--7--7-----10--10--9--9--7--|
--x--x------x---x--x--x--x--|--x--x------x---x--x--x--x--|
--5--5------8---8--7--7--5--|--5--5------8---8--7--7--5--|
--0--0------0---0--0--0--0--|--0--0------0---0--0--0--0--|


  E  E  E   E   E  E  E  E     E  E  E  E  E  E  Q     
----------------------------|-------------------------|
----------------------------|-------------------------|
--7--7-----10--10--9--9--7--|-------------------------|
--x--x------x---x--x--x--x--|--5--5-----5--5--2--2----|
--5--5------8---8--7--7--5--|--3--3-----2--2--0--0----|
--0--0------0---0--0--0--0--|-------------------------|


  E  E  E   E   E  E  E  E     E  E  E   E   E  E  E  E   
----------------------------|----------------------------|
----------------------------|----------------------------|
--7--7-----10--10--9--9--7--|--7--7-----10--10--9--9--7--|
--x--x------x---x--x--x--x--|--x--x------x---x--x--x--x--|
--5--5------8---8--7--7--5--|--5--5------8---8--7--7--5--|
--0--0------0---0--0--0--0--|--0--0------0---0--0--0--0--|


  E  E  E   E   E  E  E  E     E  E  E  E  E  E  Q     
----------------------------|-------------------------|
----------------------------|-------------------------|
--7--7-----10--10--9--9--7--|-------------------------|
--x--x------x---x--x--x--x--|--5--5-----5--5--2--2----|
--5--5------8---8--7--7--5--|--3--3-----2--2--0--0----|
--0--0------0---0--0--0--0--|-------------------------|


  E  E  E   E   E  E  E  E     E  E  E   E   E  E  E  E   
----------------------------|----------------------------|
----------------------------|----------------------------|
--7--7-----10--10--9--9--7--|--7--7-----10--10--9--9--7--|
--x--x------x---x--x--x--x--|--x--x------x---x--x--x--x--|
--5--5------8---8--7--7--5--|--5--5------8---8--7--7--5--|
--0--0------0---0--0--0--0--|--0--0------0---0--0--0--0--|


  E  E  E   E   E  E  E  E     E  E  E  E  E  E  Q       E  E  E  E  E  Q.      
----------------------------|-------------------------|------------------------|
----------------------------|-------------------------|------------------------|
--7--7-----10--10--9--9--7--|-------------------------|--3-----3-----3---------|
--x--x------x---x--x--x--x--|--5--5-----5--5--2--2----|--3-----3-----3---------|
--5--5------8---8--7--7--5--|--3--3-----2--2--0--0----|--1-----1-----1---------|
--0--0------0---0--0--0--0--|-------------------------|--1-----1-----1---------|


  > PM PM PM PM PM >  >  PM    PM >  >  PM PM PM PM PM PM PM  
  S S  E  E  E  E  E  E  E     E  E  E  E  S  S  E  S  S  E   
----------------------------|--------------------------------|
----------------------------|--------------------------------|
----------------------------|--------------------------------|
-------------------1--1-----|-----1--1-----------------------|
-------------------1--1-----|-----1--1-----------------------|
--2-1--0--0--0--0--1--1--0--|--0--1--1--0--2--2--2--3--3--3--|


  > PM PM PM PM PM >  >  PM    PM >  >  PM PM PM PM PM PM PM  
  S S  E  E  E  E  E  E  E     E  E  E  E  S  S  E  S  S  E   
----------------------------|--------------------------------|
----------------------------|--------------------------------|
----------------------------|--------------------------------|
-------------------1--1-----|-----1--1-----------------------|
-------------------1--1-----|-----1--1-----------------------|
--2-1--0--0--0--0--1--1--0--|--0--1--1--0--2--2--2--3--3--3--|


  > PM PM PM PM PM >  >  PM    PM >  >  PM PM PM PM PM PM PM  
  S S  E  E  E  E  E  E  E     E  E  E  E  S  S  E  S  S  E   
----------------------------|--------------------------------|
----------------------------|--------------------------------|
----------------------------|--------------------------------|
-------------------1--1-----|-----1--1-----------------------|
-------------------1--1-----|-----1--1-----------------------|
--2-1--0--0--0--0--1--1--0--|--0--1--1--0--2--2--2--3--3--3--|


  > PM PM PM PM PM >  >  PM    PM >  >                 ^  PM ^  PM ^  PM ^  PM  
  S S  E  E  E  E  E  E  E     E  E  E  H        E     E  E  E  E  E  E  E  E   
----------------------------|-----------------------|--------------------------|
----------------------------|-----------------------|--------------------------|
----------------------------|-----------------------|--------------------------|
-------------------1--1-----|-----1--1--------------|--3-----5-----3-----5-----|
-------------------1--1-----|-----1--1--------------|--3-----5-----3-----5-----|
--2-1--0--0--0--0--1--1--0--|--0--1--1--------------|--3--0--5--0--3--0--5--0--|


                  PM PM PM PM PM PM                    PM PM PM PM PM PM  
    Q    E  E  E  S  S  S  S  S  S       Q    E  E  E  S  S  S  S  S  S   
------------------------------------|------------------------------------|
------------------------------------|------------------------------------|
------------------------------------|------------------------------------|
------------3--L--------------------|------------3--L--------------------|
--3g5----5--3--L--------------------|--3g5----5--3--L--------------------|
----0----0--3--L--0--0--0--0--0--0--|----0----0--3--L--0--0--0--0--0--0--|


                  PM PM PM PM PM PM                               
    Q    E  E  E  S  S  S  S  S  S     E  Q    E  E    E   Q      
------------------------------------|----------------------------|
------------------------------------|----------------------------|
------------------------------------|----------------------------|
------------3--L--------------------|--7--7----5--5s--10--10\----|
--3g5----5--3--L--------------------|--5--5----3--3s---8---8\----|
----0----0--3--L--0--0--0--0--0--0--|----------------------------|


                  PM PM PM PM PM PM                    PM PM PM PM PM PM  
    Q    E  E  E  S  S  S  S  S  S       Q    E  E  E  S  S  S  S  S  S   
------------------------------------|------------------------------------|
------------------------------------|------------------------------------|
------------------------------------|------------------------------------|
------------3--L--------------------|------------3--L--------------------|
--3g5----5--3--L--------------------|--3g5----5--3--L--------------------|
----0----0--3--L--0--0--0--0--0--0--|----0----0--3--L--0--0--0--0--0--0--|


                  PM PM PM PM PM PM                               
    Q    E  E  E  S  S  S  S  S  S     E  Q    E  E    E   Q      
------------------------------------|----------------------------|
------------------------------------|----------------------------|
------------------------------------|----------------------------|
------------3--L--------------------|--7--7----5--5s--10--10\----|
--3g5----5--3--L--------------------|--5--5----3--3s---8---8\----|
----0----0--3--L--0--0--0--0--0--0--|----------------------------|


  >      >          >      >          > PM > PM > PM > PM  >          
  Q.     E  Q       Q.     E  Q       S S  S S  S S  S S   E  Q.      
-----------------|-----------------|---------------------------------|
-----------------|-----------------|---------------------------------|
-----------------|--6------7--L----|---------------------------------|
--7------8--L----|--6------7--L----|----------------------10---------|
--7------8--L----|--4------5--L----|--8-8--8-8--8-8--8-8---8---------|
--7------8--L----|-----------------|---------------------------------|


  >   >   >   >   >   >   >   >      >   >   >   >   >   >   >   >    
  S S S S S S S S S S S S S S S S    S S S S S S S S S S S S S S S S  
----------------------------------|----------------------------------|
----------------------------------|----------------------------------|
----------------------------------|----------------------------------|
--9-9-9-9-9-9---------------------|----------------------------------|
--------------8-8-8-8-8-8-7-7-7-7-|--5-5-5-5-5-5-2-2-2-2-2-2---------|
----------------------------------|--------------------------3-3-3-3-|


  > PM > PM > PM > PM > PM > PM > PM > PM    PM PM PM PM PM PM             
  S S  S S  S S  S S  S S  S S  S S  S S     E  E  E  E  E  E  S  S  S  S  
------------------------------------------|-------------------------------|
------------------------------------------|-------------------------------|
------------------------------------------|-------------------------------|
------------------------------------------|-----------2-------------------|
------------------------------------------|--2--3--5-----5--3--2h-3p-2p-0-|
--2-2--2-2--2-2--2-2--2-2--2-2--2-2--2-2--|-------------------------------|


  > PM > PM > PM > PM > PM > PM > PM > PM  
  S S  S S  S S  S S  S S  S S  S S  S S   
------------------------------------------|
------------------------------------------|
------------------------------------------|
------------------------------------------|
------------------------------------------|
--2-2--2-2--2-2--2-2--2-2--2-2--2-2--2-2--|


  > PM > PM > PM > PM > PM > PM > PM > PM  
  S S  S S  S S  S S  S S  S S  S S  S S   
------------------------------------------|
------------------------------------------|
------------------------------------------|
------------------------------------------|
------------------------------------------|
--2-2--2-2--2-2--2-2--2-2--2-2--2-2--2-2--|


  > PM > PM > PM > PM > PM > PM > PM > PM    PM PM PM PM PM PM             
  S S  S S  S S  S S  S S  S S  S S  S S     E  E  E  E  E  E  S  S  S  S  
------------------------------------------|-------------------------------|
------------------------------------------|-------------------------------|
------------------------------------------|-------------------------------|
------------------------------------------|-----------2-------------------|
------------------------------------------|--2--3--5-----5--3--2h-3p-2p-0-|
--2-2--2-2--2-2--2-2--2-2--2-2--2-2--2-2--|-------------------------------|


  S S S S S S S S S S S S S S S S    S S S S S S S S S S S S S S S S  
----------------------------------|----------------------------------|
----------------------------------|----------------------------------|
--4-4-4-4-4-4-4-4-4-4-4-4-4-4-4-4-|--4-4-4-4-4-4-4-4-4-4-4-4-4-4-4-4-|
--x-x-x-x-x-x-x-x-x-x-x-x-x-x-x-x-|--x-x-x-x-x-x-x-x-x-x-x-x-x-x-x-x-|
--2-2-2-2-2-2-2-2-2-2-2-2-2-2-2-2-|--2-2-2-2-2-2-2-2-2-2-2-2-2-2-2-2-|
----------------------------------|----------------------------------|


  S S S S S S S S S S S S S S S S    S S S S S S S S S S S S S S S S  
----------------------------------|----------------------------------|
----------------------------------|----------------------------------|
----------------------------------|----------------------------------|
--3-3-3-3-3-3-3-3-3-3-3-3-3-3-3-3-|--3-3-3-3-3-3-3-3-3-3-3-3-3-3-3-3-|
--x-x-x-x-x-x-x-x-x-x-x-x-x-x-x-x-|--x-x-x-x-x-x-x-x-x-x-x-x-x-x-x-x-|
--3-3-3-3-3-3-3-3-3-3-3-3-3-3-3-3-|--3-3-3-3-3-3-3-3-3-3-3-3-3-3-3-3-|


  S S S S S S S S S S S S S S S S    S S S S S S S S S S S S S S S S  
----------------------------------|----------------------------------|
----------------------------------|----------------------------------|
--4-4-4-4-4-4-4-4-4-4-4-4-4-4-4-4-|----------------------------------|
--x-x-x-x-x-x-x-x-x-x-x-x-x-x-x-x-|--2-2-2-2-2-2-2-2-2-2-2-2-2-2-2-2-|
--2-2-2-2-2-2-2-2-2-2-2-2-2-2-2-2-|--x-x-x-x-x-x-x-x-x-x-x-x-x-x-x-x-|
----------------------------------|--2-2-2-2-2-2-2-2-2-2-2-2-2-2-2-2-|


  S S S S S S S S S S S S S S S S    S S S S S S S S S S S S S S S S  
----------------------------------|----------------------------------|
----------------------------------|----------------------------------|
--4-4-4-4-4-4-4-4-4-4-4-4-4-4-4-4-|----------------------------------|
--x-x-x-x-x-x-x-x-x-x-x-x-x-x-x-x-|--3-3-3-3-3-3-3-3-3-3-3-3-3-3-3-3-|
--2-2-2-2-2-2-2-2-2-2-2-2-2-2-2-2-|--x-x-x-x-x-x-x-x-x-x-x-x-x-x-x-x-|
----------------------------------|--3-3-3-3-3-3-3-3-3-3-3-3-3-3-3-3-|


  Q.     Q.     Q       Q.     Q.     Q       Q.     Q.     Q     
---------------------|---------------------|---------------------|
---------------------|---------------------|---------------------|
--4------------------|--4------------------|--4------------------|
--4------2------3----|--4------2------3----|--4------2------3----|
--2------2------3----|--2------2------3----|--2------2------3----|
---------2------3----|---------2------3----|---------2------3----|


                        >  PM PM PM >  PM PM PM    >  PM PM PM >  PM PM PM  
  Q.     Q.     Q       E  E  E  E  E  E  E  E     E  E  E  E  E  E  E  E   
---------------------|--------------------------|--------------------------|
---------------------|--------------------------|--------------------------|
--4------------------|--------------------------|--------------------------|
--4------2------3----|--2--2--2--2--2--0--0--0--|--2--2--2--2--2--0--0--0--|
--2------2------3----|--2--2--2--2--2--0--0--0--|--2--2--2--2--2--0--0--0--|
---------2------3----|--2--2--2--2--2--0--0--0--|--2--2--2--2--2--0--0--0--|


  >      >          >      >          > PM > PM > PM > PM  >          
  Q.     E  Q       Q.     E  Q       S S  S S  S S  S S   E  Q.      
-----------------|-----------------|---------------------------------|
-----------------|-----------------|---------------------------------|
-----------------|--6------7--L----|---------------------------------|
--7------8--L----|--6------7--L----|----------------------10---------|
--7------8--L----|--4------5--L----|--8-8--8-8--8-8--8-8---8---------|
--7------8--L----|-----------------|---------------------------------|


                  PM PM PM PM PM PM                    PM PM PM PM PM PM  
    Q    E  E  E  S  S  S  S  S  S       Q    E  E  E  S  S  S  S  S  S   
------------------------------------|------------------------------------|
------------------------------------|------------------------------------|
------------------------------------|------------------------------------|
------------3--L--------------------|------------3--L--------------------|
--3g5----5--3--L--------------------|--3g5----5--3--L--------------------|
----0----0--3--L--0--0--0--0--0--0--|----0----0--3--L--0--0--0--0--0--0--|


                  PM PM PM PM PM PM                               
    Q    E  E  E  S  S  S  S  S  S     E  Q    E  E    E   Q      
------------------------------------|----------------------------|
------------------------------------|----------------------------|
------------------------------------|----------------------------|
------------3--L--------------------|--7--7----5--5s--10--10\----|
--3g5----5--3--L--------------------|--5--5----3--3s---8---8\----|
----0----0--3--L--0--0--0--0--0--0--|----------------------------|


  >      >          >      >          > PM > PM > PM > PM  >          
  Q.     E  Q       Q.     E  Q       S S  S S  S S  S S   E  Q.      
-----------------|-----------------|---------------------------------|
-----------------|-----------------|---------------------------------|
-----------------|--6------7--L----|---------------------------------|
--7------8--L----|--6------7--L----|----------------------10---------|
--7------8--L----|--4------5--L----|--8-8--8-8--8-8--8-8---8---------|
--7------8--L----|-----------------|---------------------------------|


  E  E  E   E   E  E  E  E     E  E  E   E   E  E  E  E   
----------------------------|----------------------------|
----------------------------|----------------------------|
--7--7-----10--10--9--9--7--|--7--7-----10--10--9--9--7--|
--x--x------x---x--x--x--x--|--x--x------x---x--x--x--x--|
--5--5------8---8--7--7--5--|--5--5------8---8--7--7--5--|
--0--0------0---0--0--0--0--|--0--0------0---0--0--0--0--|


  E  E  E   E   E  E  E  E     E  E  E  E  E  E  Q     
----------------------------|-------------------------|
----------------------------|-------------------------|
--7--7-----10--10--9--9--7--|-------------------------|
--x--x------x---x--x--x--x--|--5--5-----5--5--2--2----|
--5--5------8---8--7--7--5--|--3--3-----2--2--0--0----|
--0--0------0---0--0--0--0--|-------------------------|


  E  E  E   E   E  E  E  E     E  E  E   E   E  E  E  E   
----------------------------|----------------------------|
----------------------------|----------------------------|
--7--7-----10--10--9--9--7--|--7--7-----10--10--9--9--7--|
--x--x------x---x--x--x--x--|--x--x------x---x--x--x--x--|
--5--5------8---8--7--7--5--|--5--5------8---8--7--7--5--|
--0--0------0---0--0--0--0--|--0--0------0---0--0--0--0--|


  E  E  E   E   E  E  E  E     E  E  E  E  E  E  Q     
----------------------------|-------------------------|
----------------------------|-------------------------|
--7--7-----10--10--9--9--7--|-------------------------|
--x--x------x---x--x--x--x--|--5--5-----5--5--2--2----|
--5--5------8---8--7--7--5--|--3--3-----2--2--0--0----|
--0--0------0---0--0--0--0--|-------------------------|


  E  E  E   E   E  E  E  E     E  E  E   E   E  E  E  E   
----------------------------|----------------------------|
----------------------------|----------------------------|
--7--7-----10--10--9--9--7--|--7--7-----10--10--9--9--7--|
--x--x------x---x--x--x--x--|--x--x------x---x--x--x--x--|
--5--5------8---8--7--7--5--|--5--5------8---8--7--7--5--|
--0--0------0---0--0--0--0--|--0--0------0---0--0--0--0--|


  E  E  E   E   E  E  E  E     E  E  E  E  E  E  Q     
----------------------------|-------------------------|
----------------------------|-------------------------|
--7--7-----10--10--9--9--7--|-------------------------|
--x--x------x---x--x--x--x--|--5--5-----5--5--2--2----|
--5--5------8---8--7--7--5--|--3--3-----2--2--0--0----|
--0--0------0---0--0--0--0--|-------------------------|


  E  E  E   E   E  E  E  E     E  E  E   E   E  E  E  E   
----------------------------|----------------------------|
----------------------------|----------------------------|
--7--7-----10--10--9--9--7--|--7--7-----10--10--9--9--7--|
--x--x------x---x--x--x--x--|--x--x------x---x--x--x--x--|
--5--5------8---8--7--7--5--|--5--5------8---8--7--7--5--|
--0--0------0---0--0--0--0--|--0--0------0---0--0--0--0--|


  E  E  E   E   E  E  E  E     E  E  E  E  E  E  Q       E  E  E  E  E  Q.      
----------------------------|-------------------------|------------------------|
----------------------------|-------------------------|------------------------|
--7--7-----10--10--9--9--7--|-------------------------|--3-----3-----3---------|
--x--x------x---x--x--x--x--|--5--5-----5--5--2--2----|--3-----3-----3---------|
--5--5------8---8--7--7--5--|--3--3-----2--2--0--0----|--1-----1-----1---------|
--0--0------0---0--0--0--0--|-------------------------|--1-----1-----1---------|


  > PM > PM > PM > PM > PM > PM > PM > PM               
  S S  S S  S S  S S  S S  S S  S S  S S     Q    Q     
------------------------------------------|------------|
------------------------------------------|------------|
------------------------------------------|------------|
------------------------------------------|--0---------|
------------------------------------------|--0---------|
--7-7--7-7--3-3--3-3--5-5--5-5--1-1--1-1--|--0---------|


  w/ wah-wah as filter                                                
  E                    E  E  Q    E  E  E     E  E  E  Q    E  E  E   
-------------------------------------------|-------------------------|
-------------------------------------------|-------------------------|
-------------------------------------------|-------------------------|
--7-----------------------8--7-------7-----|--------5----------------|
-----------------------5----------5-----8--|--L--7-----8----7--6--5--|
-------------------------------------------|-------------------------|


  E  E  E  Q    E  E  E     E  E  E  Q    E  E  E     E  E  E  Q    E  E  E   
-------------------------|-------------------------|-------------------------|
-------------------------|-------------------------|-------------------------|
-------------------------|-------------------------|-------------------------|
--7-----8--7-------7-----|--------5----------------|--7-----8--7-------7-----|
-----5----------5-----8--|--L--7-----8----7--6--5--|-----5----------5-----8--|
-------------------------|-------------------------|-------------------------|


  E  E  E  Q    E  E  E     E  E  E  Q    E  E  E     E  E  E  Q    E  E  E   
-------------------------|-------------------------|-------------------------|
-------------------------|-------------------------|-------------------------|
-------------------------|-------------------------|-------------------------|
--------5----------------|--7-----8--7-------7-----|--------5----------------|
--L--7-----8----7--6--5--|-----5----------5-----8--|--L--7-----8----7--6--5--|
-------------------------|-------------------------|-------------------------|


  E  E  E  Q    E  E  E     E  E  E  Q    E  E  E     E  E  E  Q    E  E  E   
-------------------------|-------------------------|-------------------------|
-------------------------|-------------------------|-------------------------|
-------------------------|-------------------------|-------------------------|
--7-----8--7-------7-----|--------5----------------|--7-----8--7-------7-----|
-----5----------5-----8--|--L--7-----8----7--6--5--|-----5----------5-----8--|
-------------------------|-------------------------|-------------------------|


  E  E  E  Q    E  E  E     E  E  E  Q    E  E  E     E  E  E  Q    E  E  E   
-------------------------|-------------------------|-------------------------|
-------------------------|-------------------------|-------------------------|
-------------------------|-------------------------|-------------------------|
--------5----------------|--7-----8--7-------7-----|--------5----------------|
--L--7-----8----7--6--5--|-----5----------5-----8--|--L--7-----8----7--6--5--|
-------------------------|-------------------------|-------------------------|


                                                        wah-wah off           
                                                        TP                    
  E  E  E  Q    E  E  E     E  E  E  Q    E  E  E       H          Q.     E   
-------------------------|-------------------------|-------------------------|
-------------------------|-------------------------|-------------------------|
-------------------------|-------------------------|-------------------------|
--7-----8--7-------7-----|--------5----------------|--/12----------L------0--|
-----5----------5-----8--|--L--7-----8----7--6--5--|-------------------------|
-------------------------|-------------------------|-------------------------|


    TP        TP         TP         TP        TP         TP     
    Q    E    E  E  E    E  E       Q    E    E  E  E    E  E   
-------------------------------|-------------------------------|
-------------------------------|-------------------------------|
-------------------------------|-------------------------------|
--/12----0--/12--L--0--/12--0--|--/12----0--/12--L--0--/12--0--|
-------------------------------|-------------------------------|
-------------------------------|-------------------------------|


   TP   TP   TP  TP  TP  TP                                         
   E    E    E   E   E   E  E  E     E.   S S  S E  S  S S  S Q     
----------------------------------|--------------------------------|
----------------------------------|---------------------------5----|
----------------------------------|---------------------------5----|
--12S--11S--10S--9S--8S--7--0--5--|--7p---5-7p-5-7--Lh-5-7p-5------|
----------------------------------|--------------------------------|
----------------------------------|--------------------------------|


  E.   S S  S E  S  S S  S Q       E.   S S  S E  S  S S  S Q     
--------------------------------|--------------------------------|
---------------------------5----|---------------------------5----|
---------------------------5----|---------------------------5----|
--7p---5-7p-5-7--Lh-5-7p-5------|--7p---5-7p-5-7--Lh-5-7p-5------|
--------------------------------|--------------------------------|
--------------------------------|--------------------------------|


  E.   S S  S E  E  E     E   E   
---------------------------------|
--------------------5---------0--|
--------------------5--7g14s--0--|
--7p---5-7p-5-7--L---------------|
---------------------------------|
---------------------------------|


  |--6--| |--6--|    |--3--| |--6--| |--6--| |--6--| |--6--|  
  S  S  S S  S  S E  S  S  S S  S  S S  S  S S  S  S S  S  S  
-------------------------------------------------------------|
-------------------------------------------------------------|
--4p-2p-0------------4p-2p-0---------4p-2p-0-4p-2p-0---------|
----------4p-2p-0------------4p-2p-0-----------------4p-2p-0-|
-------------------------------------------------------------|
-------------------------------------------------------------|


  |--6--| |--6--| |--6--| |--6--| |--6--| |--6--| |--6--| |--6--|  
  S  S  S S  S  S S  S  S S  S  S S  S  S S  S  S S  S  S S  S  S  
------------------------------------------------------------------|
------------------------------------------------------------------|
--4p-2p-0---------4p-2p-0-4p-2p-0---------4p-2p-0-4p-2p-0---------|
----------4p-2p-0-----------------4p-2p-0-----------------4p-2p-0-|
------------------------------------------------------------------|
------------------------------------------------------------------|


  |--6--| |--6--| |--6--| |--6--| |--6--| |--6--| |--6--| |--6--|  
  S  S  S S  S  S S  S  S S  S  S S  S  S S  S  S S  S  S S  S  S  
------------------------------------------------------------------|
------------------------------------------------------------------|
--4p-2p-0---------4p-2p-0---------4p-2p-0---------4p-2p-0---------|
----------4p-2p-0---------4p-2p-0---------4p-2p-0---------4p-2p-0-|
------------------------------------------------------------------|
------------------------------------------------------------------|


  |--6--| |--6--| |--6--| |--6--| |--6--| |--6--| |--3--|     
  S  S  S S  S  S S  S  S S  S  S S  S  S S  S  S S  S  S E   
-------------------------------------------------------------|
-------------------------------------------------------------|
--4p-2p-0---------4p-2p-0---------4p-2p-0---------4p-2p-0----|
----------4p-2p-0---------4p-2p-0---------4p-2p-0---------4--|
-------------------------------------------------------------|
-------------------------------------------------------------|


  |--6--| |--6--| |--6--| |--6--| |--6--| |--6--| |--6--| |--6--|  
  S  S  S S  S  S S  S  S S  S  S S  S  S S  S  S S  S  S S  S  S  
------------------------------------------------------------------|
------------------------------------------------------------------|
--4p-2p-0---------4p-2p-0-4p-2p-0---------4p-2p-0-4p-2p-0---------|
----------4p-2p-0-----------------4p-2p-0-----------------4p-2p-0-|
------------------------------------------------------------------|
------------------------------------------------------------------|


  |--6--| |--6--| |--6--| |--6--| |--6--| |--6--| |---3--|   
  S  S  S S  S  S S  S  S S  S  S S  S  S S  S  S E   E  E   
------------------------------------------------------------|
------------------------------------------------------------|
--4p-2p-0---------4p-2p-0---------4p-2p-0---------4p--2--0--|
----------4p-2p-0---------4p-2p-0---------4p-2p-0-----------|
------------------------------------------------------------|
------------------------------------------------------------|


  |---3--|  |---3--|  |---3--|  |---3--|   
  E   E  E  E   E  E  E   E  E  E   E  E   
------------------------------------------|
---------0--5p--2--0--6p--3--0--7p--4--0--|
--4p--2-----------------------------------|
------------------------------------------|
------------------------------------------|
------------------------------------------|


  |---3--|  |---3--|   |---3--|   |---3--|   
  E   E  E  E   E  E   E   E  E   E   E  E   
--------------------------------------------|
--8p--5--0--9p--6--0--10p--7--0--11p--8--0--|
--------------------------------------------|
--------------------------------------------|
--------------------------------------------|
--------------------------------------------|


   |---3--|   |---3---|   |---3---|   |---3---|   
   E   E  E   E    E  E   E    E  E   E    E  E   
-------------------------------------------------|
--12p--9--0--13p--10--0--15p--12--0--16p--13--0--|
-------------------------------------------------|
-------------------------------------------------|
-------------------------------------------------|
-------------------------------------------------|


   |---3---|   |---3---|   |---3---|   |---3---|   
   E    E  E   E    E  E   E    E  E   E    E  E   
--------------------------------------------------|
--17p--14--0--18p--15--0--19p--16--0--20p--17--0--|
--------------------------------------------------|
--------------------------------------------------|
--------------------------------------------------|
--------------------------------------------------|


   |---3---|   |---3---|   |---3---|   |---3---|   
   E    E  E   E    E  E   E    E  E   E    E  E   
--------------------------------------------------|
--21p--18--0--22p--19--0--22p--19--0--22p--19--0--|
--------------------------------------------------|
--------------------------------------------------|
--------------------------------------------------|
--------------------------------------------------|


   |---3---|   |---3---|   |---3---|          
   E    E  E   E    E  E   E    E  E   Q      
---------------------------------------------|
--22p--19--0--22p--19--0--22p--19--0--22\----|
---------------------------------------------|
---------------------------------------------|
---------------------------------------------|
---------------------------------------------|


   * killswitch to the rhythm indicated                                         
                                              |-----6-----|     |-----6-----|   
   E.                                    S    E     E     E     E     E     E   
--20-----------------------------------(20)-(20)--(20)--(20)--(20)--(20)--(20)--
---x----------------------------------------------------------------------------
---x----------------------------------------------------------------------------
---x----------------------------------------------------------------------------
---0------------------------------------(0)--(0)---(0)---(0)---(0)---(0)---(0)--
--------------------------------------------------------------------------------


                                                               >              
    |-----6-----|     |-----6-----|                                           
    E     E     E     E     E     E    H            Q      E   Q.      Q      
--(20)--(20)--(20)--(20)--(20)--(20)-------------|---------------------------|
-------------------------------------------------|------------13\------------|
-------------------------------------------------|------------12\------------|
-------------------------------------------------|--5s----14-----------5s----|
---(0)---(0)---(0)---(0)---(0)---(0)-------------|---------------------------|
--------------------------------------20\--------|---------------------------|


       >       >                       >              
   E   Q.      H            Q      E   Q.      Q      
-------------------------|---------------------------|
------13------13\--------|------------13\------------|
------12------12\--------|------------12\------------|
--14---------------------|--5s----14-----------5s----|
-------------------------|---------------------------|
-------------------------|---------------------------|


       >                                      PM         
   E   Q.      Q     E   E     E   E  E  Q    E  E   E   
----------------------------|---------------------------|
------13------13\-----------|---------------------------|
------12------12\-----------|---------------------------|
--14-----------------2p--0--|--7h--8--7----------7h--8--|
----------------------------|--5------5--8-------5------|
----------------------------|------------0----0---------|


             PM PM PM PM                   PM                      PM PM PM PM  
  E  Q    E  E  E  E  E     E   E  E  Q    E  E   E     E  Q    E  E  E  E  E   
-------------------------|---------------------------|-------------------------|
-------------------------|---------------------------|-------------------------|
-------------------------|---------------------------|-------------------------|
--7----------------------|--7h--8--7----------7h--8--|--7----------------------|
--5--8----5--------------|--5------5--8-------5------|--5--8----5--------------|
-----0----0--0--0--0--0--|------------0----0---------|-----0----0--0--0--0--0--|


                                         PM PM PM PM  
  E   E  E  Q    E  E  E     E   Q    E  E  E  E  E   
--------------------------|--------------------------|
--------------------------|--------------------------|
--------------------------|--------------------------|
--7h--8--7----------7-----|--7h--8----7--------------|
--5------5--8----5--8-----|--8---8----8--8--8--8--8--|
------------0----0--7-----|--7---7----7--7--7--7--7--|


                                         PM PM PM PM  
  E  E  E   Q    E  E  E     E   Q    E  E  E  E  E   
--------------------------|--------------------------|
--------------------------|--------------------------|
--------------------------|--------------------------|
--6-----6h--7----6--2-----|--2h--3----2--------------|
--7-----7---7----7--3-----|--3---3----3--3--3--3--0--|
--6-----6---6----6--2-----|--2---2----2--2--2--2--0--|


                 PM                      PM PM PM PM  
  E   E  E  Q    E  E   E     E  Q    E  E  E  E  E   
---------------------------|-------------------------|
---------------------------|-------------------------|
---------------------------|-------------------------|
--7h--8--7----------7h--8--|--7----------------------|
--5------5--8-------5------|--5--8----5--------------|
------------0----0---------|-----0----0--0--0--0--0--|


                 PM                      PM PM PM PM  
  E   E  E  Q    E  E   E     E  Q    E  E  E  E  E   
---------------------------|-------------------------|
---------------------------|-------------------------|
---------------------------|-------------------------|
--7h--8--7----------7h--8--|--7----------------------|
--5------5--8-------5------|--5--8----5--------------|
------------0----0---------|-----0----0--0--0--0--0--|


                                         PM PM PM PM  
  E   E  E  Q    E  E  E     E   Q    E  E  E  E  E   
--------------------------|--------------------------|
--------------------------|--------------------------|
--------------------------|--------------------------|
--7h--8--7----------7-----|--7h--8----7--------------|
--5------5--8----5--8-----|--8---8----8--8--8--8--8--|
------------0----0--7-----|--7---7----7--7--7--7--7--|


                                         PM PM PM PM  
  E  E  E   Q    E  E  E     E   Q    E  E  E  E  E   
--------------------------|--------------------------|
--------------------------|--------------------------|
--------------------------|--------------------------|
--6-----6h--7----6--2-----|--2h--3----2--------------|
--7-----7---7----7--3-----|--3---3----3--3--3--3--0--|
--6-----6---6----6--2-----|--2---2----2--2--2--2--0--|


  > PM > PM > PM > PM > PM > PM > PM > PM  
  S S  S S  S S  S S  S S  S S  S S  S S   
------------------------------------------|
------------------------------------------|
------------------------------------------|
------------------------------------------|
------------------------------------------|
--0-0--0-0--0-0--0-0--0-0--0-0--0-0--0-0--|


  > PM > PM > PM > PM > PM > PM > PM > PM  
  S S  S S  S S  S S  S S  S S  S S  S S   
------------------------------------------|
------------------------------------------|
------------------------------------------|
------------------------------------------|
------------------------------------------|
--0-0--0-0--0-0--0-0--0-0--0-0--0-0--0-0--|


  > PM > PM > PM > PM > PM > PM > PM > PM  
  S S  S S  S S  S S  S S  S S  S S  S S   
------------------------------------------|
------------------------------------------|
------------------------------------------|
------------------------------------------|
------------------------------------------|
--0-0--0-0--0-0--0-0--0-0--0-0--0-0--0-0--|


  > PM > PM > PM > PM > PM > PM > PM > PM  
  S S  S S  S S  S S  S S  S S  S S  S S   
------------------------------------------|
------------------------------------------|
------------------------------------------|
------------------------------------------|
------------------------------------------|
--0-0--0-0--0-0--0-0--0-0--0-0--0-0--0-0--|


  > PM > PM > PM > PM > PM > PM > PM > PM  
  S S  S S  S S  S S  S S  S S  S S  S S   
------------------------------------------|
------------------------------------------|
------------------------------------------|
------------------------------------------|
------------------------------------------|
--2-2--2-2--2-2--2-2--2-2--2-2--2-2--2-2--|


  > PM > PM > PM > PM > PM > PM > PM > PM  
  S S  S S  S S  S S  S S  S S  S S  S S   
------------------------------------------|
------------------------------------------|
------------------------------------------|
------------------------------------------|
------------------------------------------|
--2-2--2-2--2-2--2-2--2-2--2-2--2-2--2-2--|


  w/ wah-wah as filter                                             
                                  \1/                   \2         
  |-----------3-----------|                                        
  E                    E  E  Q    H           Q    Q    Q    Q     
-----------------------------0----L--------|--L----L--------------|
--------------------------0-------L--------|--L----L--------------|
-----------------------0----------L--------|--L----L----0----L----|
--0-------------------------------L--------|--L----L--------------|
-------------------------------------------|----------------------|
-------------------------------------------|----------------------|


  |--3--|      |--3--|      |--3--|       |--3--|      |--3--|      |--3--|     
  S  S  S Q    S  S  S Q    S  S  S E     S  S  S Q    S  S  S Q    S  S  S E   
---------------------------------------|---------------------------------------|
---------------------------------------|---------------------------------------|
--3p-2p-0------3p-2p-0------3p-2p-0----|--3p-2p-0------3p-2p-0------3p-2p-0----|
----------2------------2------------2--|----------2------------2------------2--|
---------------------------------------|---------------------------------------|
---------------------------------------|---------------------------------------|


  |--3--|      |--3--|      |--3--|       
  S  S  S Q    S  S  S Q    S  S  S S  S  
-----------------------------------------|
-----------------------------------------|
--3p-2p-0------3p-2p-0------3p-2p-0------|
----------3------------3------------3p-0-|
-----------------------------------------|
-----------------------------------------|


  |--3--|      |--3--|      |--3--|       
  S  S  S Q    S  S  S Q    S  S  S S  S  
-----------------------------------------|
-----------------------------------------|
--3p-2p-0------3p-2p-0------3p-2p-0------|
----------3------------3------------3p-0-|
-----------------------------------------|
-----------------------------------------|


  S  S S S S  S S S S  S S S S  S S S    S  S S S S  S S S S  S S S S  S S S  
--------------------------------------|--------------------------------------|
--------------------------------------|--------------------------------------|
--5p-3---0-5p-3---0-5p-3---0-5p-3---0-|--5p-3---0-5p-3---0-5p-3---0-5p-3---0-|
-------5--------5--------5--------5---|-------5--------5--------5--------5---|
--------------------------------------|--------------------------------------|
--------------------------------------|--------------------------------------|


  S  S S S S  S S S S  S S S S  S S S    S  S S S S  S S S S  S S S S  S  E   
--------------------------------------|--------------------------------------|
--------------------------------------|--------------------------------------|
--------------------------------------|--------------------------------------|
--5p-3---0-5p-3---0-5p-3---0-5p-3---0-|--5p-3---0-5p-3---0-5p-3---0-5p-3s-2--|
-------5--------5--------5--------5---|-------5--------5--------5------------|
--------------------------------------|--------------------------------------|


  |--3--|      |--3--|      |--3--|     
  S  S  S Q    S  S  S Q    S  S  S E   
---------------------------------------|
---------------------------------------|
--3p-2p-0------3p-2p-0------3p-2p-0----|
----------2------------2------------2--|
---------------------------------------|
---------------------------------------|


  |--3--|    |--3--|    |--3--|    |--3--|     
  S  S  S E  S  S  S E  S  S  S E  S  S  S E   
----------------------------------------------|
----------------------------------------------|
--3p-2p-0----3p-2p-0----3p-2p-0----3p-2p-0----|
----------2----------2----------2----------2--|
----------------------------------------------|
----------------------------------------------|


  |--3--|    |--3--|    |--3--|    |--3--|     
  S  S  S E  S  S  S E  S  S  S E  S  S  S E   
----------------------------------------------|
----------------------------------------------|
--3p-2p-0----3p-2p-0----3p-2p-0----3p-2p-0----|
----------3----------3----------3----------3--|
----------------------------------------------|
----------------------------------------------|


  |--3--|    |--3--|    |--3--|    |--3--|     
  S  S  S E  S  S  S E  S  S  S E  S  S  S E   
----------------------------------------------|
----------------------------------------------|
--3p-2p-0----3p-2p-0----3p-2p-0----3p-2p-0----|
----------3----------3----------3----------3--|
----------------------------------------------|
----------------------------------------------|


  |--3--|    |--3--|    |--3--|    |--3--|     
  S  S  S E  S  S  S E  S  S  S E  S  S  S E   
----------------------------------------------|
----------------------------------------------|
--5p-3p-0----5p-3p-0----5p-3p-0----5p-3p-0----|
----------5----------5----------5----------5--|
----------------------------------------------|
----------------------------------------------|


  |--3--|    |--3--|    |--3--|    |--3--|     
  S  S  S E  S  S  S E  S  S  S E  S  S  S E   
----------------------------------------------|
----------------------------------------------|
--5p-3p-0----5p-3p-0----5p-3p-0----5p-3p-0----|
----------5----------5----------5----------5--|
----------------------------------------------|
----------------------------------------------|


  |--3--|    |--3--|    |--3--|    |--3--|     
  S  S  S E  S  S  S E  S  S  S E  S  S  S E   
----------------------------------------------|
----------------------------------------------|
----------------------------------------------|
--5p-3p-0----5p-3p-0----5p-3p-0----5p-3p-0----|
----------5----------5----------5----------5--|
----------------------------------------------|


  |--3--|    |--3--|    |--3--|               
  S  S  S E  S  S  S E  S  S  S E  E    S  S  
---------------------------------------------|
---------------------------------------------|
------------------------------------------12-|
--5p-3p-0----5p-3p-0----5p-3p-0----5S--14----|
----------5----------5----------5------------|
---------------------------------------------|


   S   S  S  S  S   S  S   S  S  S  S   S  S   S  S  S  
-------------------------------------------------------|
-------------------------------------------------------|
--14p-12----12-14p-12-14p-12----12-14p-12-14p-12----12-|
---------14------------------14------------------14----|
-------------------------------------------------------|
-------------------------------------------------------|


                          TP         
      E   S  S  E   S  S  H          
-------------------14-15-17S--------|
---------17-15-17-------------------|
--14g16-----------------------------|
------------------------------------|
------------------------------------|
------------------------------------|


             wah-wah off                    
             >           PM > PM > PM > PM  
   H         S           S  S S  S S  S S   
--24\--------------------------------------|
-------------------------------------------|
-------------------------------------------|
-------------------------------------------|
-------------------------------------------|
-------------0-----------0--0-0--0-0--0-0--|


  > PM > PM > PM > PM > PM > PM > PM > PM  
  S S  S S  S S  S S  S S  S S  S S  S S   
------------------------------------------|
------------------------------------------|
------------------------------------------|
------------------------------------------|
------------------------------------------|
--0-0--0-0--0-0--0-0--0-0--0-0--0-0--0-0--|


  > PM > PM > PM > PM > PM > PM > PM > PM  
  S S  S S  S S  S S  S S  S S  S S  S S   
------------------------------------------|
------------------------------------------|
------------------------------------------|
------------------------------------------|
------------------------------------------|
--0-0--0-0--0-0--0-0--0-0--0-0--0-0--0-0--|


  > PM > PM > PM > PM > PM > PM > PM > PM    > PM > PM                  
  S S  S S  S S  S S  S S  S S  S S  S S     S S  S S   Q    E  Q.      
------------------------------------------|----------------------------|
------------------------------------------|----------------------------|
------------------------------------------|------------10----L--9------|
------------------------------------------|------------10----L--9------|
------------------------------------------|-------------8----L--7------|
--0-0--0-0--0-0--0-0--0-0--0-0--0-0--0-0--|--0-0--0-0---8----L--7------|


                            PM PM > PM > PM > PM > PM > PM > PM  
  Q.     E  Q    Q       E  S  S  S S  S S  S S  S S  S S  S S   
----------------------|-----------------------------------------|
----------------------|-----------------------------------------|
--8------7--L----8----|--9--------------------------------------|
--8------7--L----8----|--9--------------------------------------|
--6------5--L----6----|--7--------------------------------------|
--6------5--L----6----|--7--0--0--0-0--0-0--0-0--0-0--0-0--0-0--|


  > PM > PM > PM > PM > PM > PM > PM > PM    > PM > PM                  
  S S  S S  S S  S S  S S  S S  S S  S S     S S  S S   Q    E  Q.      
------------------------------------------|----------------------------|
------------------------------------------|----------------------------|
------------------------------------------|------------10----L--9------|
------------------------------------------|------------10----L--9------|
------------------------------------------|-------------8----L--7------|
--0-0--0-0--0-0--0-0--0-0--0-0--0-0--0-0--|--0-0--0-0---8----L--7------|


                            PM PM > PM > PM > PM > PM > PM > PM  
  Q.     E  Q    Q       E  S  S  S S  S S  S S  S S  S S  S S   
----------------------|-----------------------------------------|
----------------------|-----------------------------------------|
--8------7--L----8----|--9--------------------------------------|
--8------7--L----8----|--9--------------------------------------|
--6------5--L----6----|--7--------------------------------------|
--6------5--L----6----|--7--0--0--0-0--0-0--0-0--0-0--0-0--0-0--|


  > PM > PM > PM > PM > PM > PM > PM > PM    > PM > PM                  
  S S  S S  S S  S S  S S  S S  S S  S S     S S  S S   Q    E  Q.      
------------------------------------------|----------------------------|
------------------------------------------|----------------------------|
------------------------------------------|------------10----L--9------|
------------------------------------------|------------10----L--9------|
------------------------------------------|-------------8----L--7------|
--0-0--0-0--0-0--0-0--0-0--0-0--0-0--0-0--|--0-0--0-0---8----L--7------|


  Q.     E  Q    Q       E  E  Q    E  Q.        Q.     E  Q    Q     
----------------------|-----------------------|----------------------|
----------------------|-----------------------|----------------------|
--8------7--L----8----|--9-----7----L--6------|--5------4--L----5----|
--8------7--L----8----|--9-----7----L--6------|--5------4--L----5----|
--6------5--L----6----|--7-----5----L--4------|--3------2--L----3----|
--6------5--L----6----|--7-----5----L--4------|--3------2--L----3----|


  > PM > PM > PM > PM > PM > PM > PM > PM  
  S S  S S  S S  S S  S S  S S  S S  S S   
------------------------------------------|
------------------------------------------|
------------------------------------------|
------------------------------------------|
------------------------------------------|
--0-0--0-0--0-0--0-0--0-0--0-0--0-0--0-0--|


  > PM > PM > PM > PM > PM > PM > PM > PM  
  S S  S S  S S  S S  S S  S S  S S  S S   
------------------------------------------|
------------------------------------------|
------------------------------------------|
------------------------------------------|
------------------------------------------|
--0-0--0-0--0-0--0-0--0-0--0-0--0-0--0-0--|


  > PM > PM > PM > PM > PM > PM > PM > PM    > PM > PM > PM > PM             
  S S  S S  S S  S S  S S  S S  S S  S S     S S  S S  S S  S S  E  E  Q     
------------------------------------------|---------------------------------|
------------------------------------------|---------------------------------|
------------------------------------------|---------------------------------|
------------------------------------------|----------------------3--2--1----|
------------------------------------------|----------------------3--2--1----|
--0-0--0-0--0-0--0-0--0-0--0-0--0-0--0-0--|--0-0--0-0--0-0--0-0--3--2--1----|


  > PM > PM > PM > PM > PM > PM > PM > PM    > PM > PM > PM > PM             
  S S  S S  S S  S S  S S  S S  S S  S S     S S  S S  S S  S S  E  E  Q     
------------------------------------------|---------------------------------|
------------------------------------------|---------------------------------|
------------------------------------------|---------------------------------|
------------------------------------------|----------------------3--2--1----|
------------------------------------------|----------------------3--2--1----|
--0-0--0-0--0-0--0-0--0-0--0-0--0-0--0-0--|--0-0--0-0--0-0--0-0--3--2--1----|


  > PM > PM > PM > PM > PM > PM > PM > PM    > PM > PM > PM > PM             
  S S  S S  S S  S S  S S  S S  S S  S S     S S  S S  S S  S S  E  E  Q     
------------------------------------------|---------------------------------|
------------------------------------------|---------------------------------|
------------------------------------------|---------------------------------|
------------------------------------------|----------------------3--2--1----|
------------------------------------------|----------------------3--2--1----|
--0-0--0-0--0-0--0-0--0-0--0-0--0-0--0-0--|--0-0--0-0--0-0--0-0--3--2--1----|


  > PM > PM > PM > PM > PM > PM > PM > PM    > PM > PM > PM > PM             
  S S  S S  S S  S S  S S  S S  S S  S S     S S  S S  S S  S S  E  E  Q     
------------------------------------------|---------------------------------|
------------------------------------------|---------------------------------|
------------------------------------------|---------------------------------|
------------------------------------------|----------------------3--2--1----|
------------------------------------------|----------------------3--2--1----|
--0-0--0-0--0-0--0-0--0-0--0-0--0-0--0-0--|--0-0--0-0--0-0--0-0--3--2--1----|


  > PM > PM > PM > PM > PM > PM > PM > PM    > PM > PM > PM > PM             
  S S  S S  S S  S S  S S  S S  S S  S S     S S  S S  S S  S S  E  E  Q     
------------------------------------------|---------------------------------|
------------------------------------------|---------------------------------|
------------------------------------------|---------------------------------|
------------------------------------------|----------------------3--2--1----|
------------------------------------------|----------------------3--2--1----|
--0-0--0-0--0-0--0-0--0-0--0-0--0-0--0-0--|--0-0--0-0--0-0--0-0--3--2--1----|


  > PM > PM > PM > PM > PM > PM > PM > PM    > PM > PM > PM > PM >  >       
  S S  S S  S S  S S  S S  S S  S S  S S     S S  S S  S S  S S  E  Q.      
------------------------------------------|--------------------------------|
------------------------------------------|--------------------------------|
------------------------------------------|--------------------------------|
------------------------------------------|----------------------3--2------|
------------------------------------------|----------------------3--2------|
--0-0--0-0--0-0--0-0--0-0--0-0--0-0--0-0--|--0-0--0-0--0-0--0-0--3--2------|


  W                   H           E  E  E   E   E  E  E  E   
-------------------|-----------|----------------------------|
-------------------|-----------|----------------------------|
-------------------|-----------|--7--7-----10--10--9--9--7--|
-------------------|-----------|--x--x------x---x--x--x--x--|
-------------------|-----------|--5--5------8---8--7--7--5--|
-------------------|-----------|--0--0------0---0--0--0--0--|


  E  E  E   E   E  E  E  E     E  E  E   E   E  E  E  E   
----------------------------|----------------------------|
----------------------------|----------------------------|
--7--7-----10--10--9--9--7--|--7--7-----10--10--9--9--7--|
--x--x------x---x--x--x--x--|--x--x------x---x--x--x--x--|
--5--5------8---8--7--7--5--|--5--5------8---8--7--7--5--|
--0--0------0---0--0--0--0--|--0--0------0---0--0--0--0--|


  E  E  E  E  E  E  Q       E  E  E   E   E  E  E  E   
-------------------------|----------------------------|
-------------------------|----------------------------|
-------------------------|--7--7-----10--10--9--9--7--|
--5--5-----5--5--2--2----|--x--x------x---x--x--x--x--|
--3--3-----2--2--0--0----|--5--5------8---8--7--7--5--|
-------------------------|--0--0------0---0--0--0--0--|


  E  E  E   E   E  E  E  E     E  E  E   E   E  E  E  E   
----------------------------|----------------------------|
----------------------------|----------------------------|
--7--7-----10--10--9--9--7--|--7--7-----10--10--9--9--7--|
--x--x------x---x--x--x--x--|--x--x------x---x--x--x--x--|
--5--5------8---8--7--7--5--|--5--5------8---8--7--7--5--|
--0--0------0---0--0--0--0--|--0--0------0---0--0--0--0--|


  E  E  E  E  E  E  Q       E  E  E   E   E  E  E  E   
-------------------------|----------------------------|
-------------------------|----------------------------|
-------------------------|--7--7-----10--10--9--9--7--|
--5--5-----5--5--2--2----|--x--x------x---x--x--x--x--|
--3--3-----2--2--0--0----|--5--5------8---8--7--7--5--|
-------------------------|--0--0------0---0--0--0--0--|


  E  E  E   E   E  E  E  E     E  E  E   E   E  E  E  E   
----------------------------|----------------------------|
----------------------------|----------------------------|
--7--7-----10--10--9--9--7--|--7--7-----10--10--9--9--7--|
--x--x------x---x--x--x--x--|--x--x------x---x--x--x--x--|
--5--5------8---8--7--7--5--|--5--5------8---8--7--7--5--|
--0--0------0---0--0--0--0--|--0--0------0---0--0--0--0--|


  E  E  E  E  E  E  Q       E  E  E   E   E  E  E  E   
-------------------------|----------------------------|
-------------------------|----------------------------|
-------------------------|--7--7-----10--10--9--9--7--|
--5--5-----5--5--2--2----|--x--x------x---x--x--x--x--|
--3--3-----2--2--0--0----|--5--5------8---8--7--7--5--|
-------------------------|--0--0------0---0--0--0--0--|


  E  E  E   E   E  E  E  E     E  E  E   E   E  E  E  E   
----------------------------|----------------------------|
----------------------------|----------------------------|
--7--7-----10--10--9--9--7--|--7--7-----10--10--9--9--7--|
--x--x------x---x--x--x--x--|--x--x------x---x--x--x--x--|
--5--5------8---8--7--7--5--|--5--5------8---8--7--7--5--|
--0--0------0---0--0--0--0--|--0--0------0---0--0--0--0--|


                                                     > PM PM PM PM PM >  >  PM  
  E  E  E  E  E  E  Q       E  E  E  E  E  Q.        S S  E  E  E  E  E  E  E   
-------------------------|------------------------|----------------------------|
-------------------------|------------------------|----------------------------|
-------------------------|--3-----3-----3---------|----------------------------|
--5--5-----5--5--2--2----|--3-----3-----3---------|-------------------1--1-----|
--3--3-----2--2--0--0----|--1-----1-----1---------|-------------------1--1-----|
-------------------------|--1-----1-----1---------|--2-1--0--0--0--0--1--1--0--|


  PM >  >  PM PM PM PM PM PM PM    > PM PM PM PM PM >  >  PM  
  E  E  E  E  S  S  E  S  S  E     S S  E  E  E  E  E  E  E   
--------------------------------|----------------------------|
--------------------------------|----------------------------|
--------------------------------|----------------------------|
-----1--1-----------------------|-------------------1--1-----|
-----1--1-----------------------|-------------------1--1-----|
--0--1--1--0--2--2--2--3--3--3--|--2-1--0--0--0--0--1--1--0--|


  PM >  >  PM PM PM PM PM PM PM                            
  E  E  E  E  S  S  E  S  S  E     E  E  E  E   Q    Q     
--------------------------------|-------------------------|
--------------------------------|-------------------------|
--------------------------------|-------------------------|
-----1--1-----------------------|--------5--6~--L----5----|
-----1--1-----------------------|-----5-------------------|
--0--1--1--0--2--2--2--3--3--3--|--0----------------------|


  E  E  E  E   E  E  E  E     E  E  E  E   Q    Q     
---------------------------|-------------------------|
---------------------------|-------------------------|
---------------------------|-------------------------|
--------5------------5-----|--------5--6~--L----5----|
-----5------------------6--|-----5-------------------|
--0--------3~--L--0--------|--0----------------------|


  E  E  E  E   E  E  E  E     E  E  E  E   Q    Q     
---------------------------|-------------------------|
---------------------------|-------------------------|
---------------------------|-------------------------|
--------5------------5-----|--------5--6~--L----5----|
-----5------------------6--|-----5-------------------|
--0--------3~--L--0--------|--0----------------------|


  E  E  E  E   E  E  E  E     E  E  E  E   Q    Q     
---------------------------|-------------------------|
---------------------------|-------------------------|
---------------------------|-------------------------|
--------5------------5-----|--------5--6~--L----5----|
-----5------------------6--|-----5-------------------|
--0--------3~--L--0--------|--0----------------------|


                              ^  PM ^  PM ^  PM ^  PM                PM  
  E  E  E  E   E  E  E  E     E  E  E  E  E  E  E  E       Q      E  E   
---------------------------|--------------------------|-----------------|
---------------------------|--------------------------|-----------------|
---------------------------|--------------------------|-----------------|
--------5------------5-----|--3-----5-----3-----5-----|-----------------|
-----5------------------6--|--3-----5-----3-----5-----|--3g5----3g5-----|
--0--------3~--L--0--------|--3--0--5--0--3--0--5--0--|----0------0--0--|


  ^  PM ^  PM ^  PM ^  PM                PM    ^  PM ^  PM ^  PM ^  PM  
  E  E  E  E  E  E  E  E       Q      E  E     E  E  E  E  E  E  E  E   
--------------------------|-----------------|--------------------------|
--------------------------|-----------------|--------------------------|
--------------------------|-----------------|--------------------------|
--3-----5-----3-----5-----|-----------------|--3-----5-----3-----5-----|
--3-----5-----3-----5-----|--3g5----3g5-----|--3-----5-----3-----5-----|
--3--0--5--0--3--0--5--0--|----0------0--0--|--3--0--5--0--3--0--5--0--|


              PM    ^  PM ^  PM ^  PM ^  PM                              
    Q      E  E     E  E  E  E  E  E  E  E       Q    E  E  E  E  E  E   
-----------------|--------------------------|---------------------------|
-----------------|--------------------------|---------------------------|
-----------------|--------------------------|---------------------------|
-----------------|--3-----5-----3-----5-----|---------------------5-----|
--3g5----3g5-----|--3-----5-----3-----5-----|--3g5-------------------6--|
----0------0--0--|--3--0--5--0--3--0--5--0--|----0----0--3--L--0--------|


                                 PM       PM               PM       PM        
  Q    E  E  E  E  E  E     Q    E  E  E  E  E  E     Q    E  E  E  E  E  E   
-------------------------|-------------------------|-------------------------|
-------------------------|-------------------------|-------------------------|
--7----------------------|--7----------------------|--7----------------------|
--7----------------5-----|--7-------3--L-----5-----|--7-------3--L-----5-----|
--5-------------------6--|--5-------3--L--------6--|--5-------3--L--------6--|
-------0--3--L--0--------|-------0--3--L--0--------|-------0--3--L--0--------|


                                                         PM PM    >    
  E  E  E  E  Q    Q        W                   H        E  E  E  E    
-------------------------|-------------------|-----------------------||
-------------------------|-------------------|-----------------------||
-------------------------|-------------------|-----------------------||
--------5--6--L----5~----|--L----------------|--L--------------5--0--||
-----5-------------------|-------------------|--------------5-----0--||
--0----------------------|-------------------|-----------0--------0--||






Luck. Runs. Out. 
Crawl from the wreckage one more time 
Horrific memory twists the mind 
Dark, rugged, cold and hard to turn 
Path of destruction, feel it burn 
Still life 
Incarnation 
Still life 
Infamy 

Hallucination 
Heresy 
Still you run, what's to come? 
What's to be? 

'Cause we hunt you down without mercy 
Hunt you down all nightmare long 
Feel us breathe upon your face 
Feel us shift, every move we trace 
Hunt you down without mercy 
Hunt you down all nightmare long, yeah 
Luck. Runs. 

You crawl back in 
But your luck runs out 

1.2. 

Luck. Runs. Out. 

The light that is not light is here 
To flush you out with your own fear 
You hide, you hide, but will be found 
Release your crypt without a sound 

Still life 
Immolation 
Still life 
Infamy 

Hallucination 
Heresy 
Still you run, what's to come? 
What's to be? 

'Cause we hunt you down without mercy 
Hunt you down all nightmare long 
Feel us breathe upon your face 
Feel us shift, every move we trace 
Hunt you down without mercy 
Hunt you down all nightmare long 
Luck. Runs. 

You crawl back in 
But your luck runs out 

Then you crawl back in 
Into your obsession 
Never to return 
This is your confession 

Hunt you down without mercy 
Hunt you down all nightmare long 
Feel us breathe upon your face 
Feel us shift, every move we trace 
Hunt you down without mercy 
Hunt you down all nightmare long, yeah 
Luck. Runs. 

You crawl back in 
But your luck runs out 

Your luck runs out










Duration Legend
---------------
W - whole
H - half
Q - quarter
E - 8th
S - 16th
T - 32nd
X - 64th
. - note dotted
|-n-|  - n-tuplets


Tablature Legend
----------------
L - tied note
x - dead note
g - grace note
(n) - ghost note
> - accentuded note
NH - natural harmonic
h - hammer on
p - pull off
\n/ - tremolo bar dip
\n - tremolo bar dive
-/n - tremolo bar Release up
/n\ - tremolo bar inverted dip
/n - tremolo bar return
-\n - tremolo bar Release down
S - shift slide
s - legato slide
/ -  slide into from below or out of upwards
\ -  slide into from above or out of downwards
~ - vibrato
TP - tremolo picking








---------------


version 4





(intro)

-------------------------------------------------------------------]
-------------------------------------------------------------------]
-------------------------------------------------------------------]x2
-----5-6~-5------5-----5------------5-6~-----5-----5---------------]
---5-----------5---------6--------5--------5---------6-------------]
-0-----------0-----3-0----------0--------0-----3-0-----------------]


-------------------------------------------------------------------]
-------------------------------------------------------------------]
-------------------------------------------------------------------]
0--6--5--00---0--6--5--00---0--6--5--0-0-0---0--6--5--00-0-00-0----]
0--6--5--00---0--6--5--00---0--6--5--0-0-0---0--6--5--00-0-00-0----]
0--6--5--00---0--6--5--00---0--6--5--0-0-0---0--6--5--00-0-00-0----]


-------------------------------------------------------------------]
-------------------------------------------------------------------]
-------------------------------------------------------------------]
6-5--0---6-5-------------------------------------------------------]
6-5--0---6-5-------------------------------------------------------]
6-5--0---6-5-----000000000000000000000000000000000000000000000000--]


-------------------------------------------------------------------]
-------------------------------------------------------------------]
-------------------------------------------------------------------]
-------------------------------------------------------------------]
-------------------------------------------------------------------]
2/-12\--0000000000000000--12\3--0--21000000000000000-21000000000000]


---(--------------------------)------------------------------------]
---(--------------------------)------------------------------------]
---(--------------------------)-(x4)-------------------------------]
---(--------11----11----------)---------1-1---3---5---3---5--------]
---(--------11----11----------)---------1-1---3---5---3---5---3-5-5]
000(-210000-11-00-11-0-222-333)-------0-1-1---3-0-5-0-3-0-5-0-0---0]


-------------------------------------------------------------------]
-------------------------------------------------------------------]
----------------------------------------------------------------6-7]
3---------------3---------------3---------7-7--5-5/10--10\--7-8-6-7]
3---------3-5-5-3---------3-5-5-3---------5-5--3-3/-8---8\--7-8-4-5]
3--000000-0---0-3--000000-0---0-3--000000-------------------7-8----]


-------------------------------------------------------------------]
-------------------------------------------------------------------]
-------------------------------------------------------------------]
---------------------------------------------3---------------3-----]
8-888-888-888-888-88-1010101010101010--3-5-5-3---------3-5-5-3-----]
---------------------------------------0---0-3--000000-0---0-3-----]


-------------------------------------------------------------------]
-------------------------------------------------------------------]
-------------------------------6-7----------10---------------------]
---------7-7--5-5/10-10\---7-8-6-7----------10---999999------------]
---------5-5--3-3/-8--8\---7-8-4-5--88888888-8---------888888777755]
-000000--------------------7-8-------------------------------------]


-------------------------------------------------------------------]
-------------------------------------------------------------------]
-------------------------------------------------------------------]
-------------------------------------------------------------------]
5555222222---------------------------------------------------------]
----------33332222222222222222222222222222222222222222222222222----]



-------------------------------------------------------------------]
-------------------------------------------------------------------]
--------------------4----4----5----4---4---4---5------------6-7----]
------2-------------x----x----x----x---x---x---x--------7-8-6-7----]
2-3-5---5-3--2320---2----2----3----2---2---2---3--------7-8-4-5----]
---------------------------------------------------x\---7-8--------]



-----------(----------------------)--------------------------------]
-----------(----------------------)--------------------------------]
-----------(-7-7--1010--9-9-7-7-7-)-(x4)-------------3-3-3---------]
--------10-(-x-x---x-x--x-x-x-x-x-)------55-55-2-2---3-3-3---------]
88888888-8-(-5-5---8-8--7-7-5-5-5-)------33-33-0-0---1-1-1---------]
-----------(-0-0---0-0--0-0-0-0-0-)------------------1-1-1---------]



-------------------------------------------------------------------]
-------------------------------------------------------------------]
-(play lines 4 and 5)----------------------------------------------]
------------------------------------------0------------------------]
------------------------------------------0------------------------]
-------------------------7777333355551111-0------------------------]



                                  guitar solo
--------------------------------(----------------------------------]
--------------------------------(----------------------------------]
--------------------------------(----------------------------------]
-------7--7-7---------3---3-2-1-(-/12-----0----/12-0/12--0/12-0-/12]
-------7--7-7---------3---3-2-1-(----------------------------------]
-00000-7--7-7---33333-3---3-2-1-(----------------------------------]




----------------------------------(------------------)-------------]
----------------------------------(-----------------5)------------0]
----------------------------------(-----------------5)(x4)--7/14\-0]
-0/12--0/12-0--12\11\10\9\8\7-0-5-(7--5-757-7-5-7-5--)-------------]
----------------------------------(------------------)-------------]
----------------------------------(------------------)-------------]




-------------------------------------------------------------------]
-------------------------------------------------------------------]
420----420---420420---420---420420----420420----420---420---420----]
----420---420------420---420------420--------420---420---420---420-]
-------------------------------------------------------------------]
-------------------------------------------------------------------]




-------------------------------------------------------------------]
-------------------------------------------------------------------]
420---420---420---420---420---420---420420---420420---420---420420-]
---420---420---420---420---420---420------420------420---420-------]
-------------------------------------------------------------------]
-------------------------------------------------------------------]




-------------------------------------------------------------------]
--------------052-063-074-085-960-1070-1180-1290-13100-15120-16130-]
---420420-4-2------------------------------------------------------]
420----------------------------------------------------------------]
-------------------------------------------------------------------]
-------------------------------------------------------------------]




-------------------------------------------------------------------]
17140-18150-19160-2017-21180-22190-22190-22190-22190-22190-22190---]
-------------------------------------------------------------------]
-------------------------------------------------------------------]
-------------------------------------------------------------------]
-------------------------------------------------------------------]




---------20-(times 17)---------------------------------------------]
0-22\-----x-----------------------13-13\------13-13\------13-13\---]
----------x-----------------------12-12\------12-12\------12-12\---]
----------x------------------5/14--------5/14--------5/14----------]
----------0--------------------------------------------------------]
-------------------------20\---------------------------------------]




----------------(-------------------------------)------------------]
-----13-13\-----(-------------------------------)------------------]
-----12-12\-----(-------------------------------)-(x2)-------------]
5/14--------2-0-(-7-8-7-------7-8-7-------------)------------------]
----------------(-5---5-8-----5---5-8--5--------)------------------]
----------------(-------0---0-------0--0-0-0-0-0)------------------]





---------------------------------------0-(0)-----------------------]
--------------------------------------0--(0)(divebomb)-------------]
-------------------------------------0---(0)------------(0)--------]
------------------------------------0----(0)-----------------------]
-------------------------------------------------------------------]
0000000000000000000000000000000000---------------------------------]





-------------------------------------------------------------------]
-------------------------------------------------------------------]
320------320----320---(x2)--320------320---320----(x2)-------------]
----2--------2------2------------3-------3-----3-0-----------------]
-------------------------------------------------------------------]
-------------------------------------------------------------------]





-------------------------------------------------------------------]
-------------------------------------------------------------------]
53-053-053-053-053-053-053-053-053-053-053-053-053-053-053\2-------]
--5---5---5---5---5---5---5---5---5---5---5---5---5---5------------]
-------------------------------------------------------------------]
-------------------------------------------------------------------]





-------------------------------------------------------------------]
-------------------------------------------------------------------]
320---(x7)--320----(x8)--530----(x15)--5/14--121412--1214121412--12]
----2-----------3------------5---------------------14----------14--]
-------------------------------------------------------------------]
-------------------------------------------------------------------]






---------------------141517/24\------------------------------------]
---------------171517----------------------------------------------]
14121412--14/16----------------------------------------------------]
--------14---------------------------------------------------------]
-------------------------------------------------------------------]
---------------------------------000000000000000000000000000000000-]






-------------------------------------------------------------------]
-------------------------------------------------------------------]
-----10---9---8---7---8---9----------------------------------------]
-----10---9---8---7---8---9----------------------------------------]
------8---7---6---5---6---7----------------------------------------]
0000--8---7---6---5---6---7--000000000000000000000000000000000000--]






-------------------------------------------------------------------]
-------------------------------------------------------------------]
10---9---8---7---8---9---7----6---5---4---5------------------------]
10---9---8---7---8---9---7----6---5---4---5------------------------]
-8---7---6---5---6---7---5----4---3---2---3------------------------]
-8---7---6---5---6---7---5----4---3---2---3--0000000000000000000000]






-------------------------------------------------------------------]
-------------------------------------------------------------------]
-------------------------------------------------------------------]
----3-2-1---------------------------3-2---------1-1----1-1---------]
----3-2-1---------------------------3-2---------1-1----1-1---------]
000-3-2-1--000000000000000000000000-3-2--210000-1-1-00-1-1-0-222333]






-------------------------------------------------------------------]
-------------------------------------------------------------------]
-------------------------------------------------------------------]
-------1-1----1-1-------------0------5-1-------3---5---3---5-------]
-------1-1----1-1-------------0------5-1-------3---5---3---5-------]
210000-1-1-00-1-1-0222333-----0------5-1-------3-0-5-0-3-0-5-------]






-------------------------------------------------------------------]
-------------------------------------------------------------------]
-------------------------------------------7--------------7--------]
-----------3---5---3---5--------------5----7----------5---7----3---]
3-5-3-5----3---5---3---5--3-5-----------6--5------------6-5----3---]
0---0---0--3-0-5-0-3-0-5--0---0-3---0---------0-3---0--------0-3---]





-------------------------------------------------------------------]
-------------------------------------------------------------------]
-------7-----------------------------------------------------------]
--5----7-----3------5---------5-6---5~----------5--0---------------]
----6--5-----3--------6-----5-----------------5----0---------------]
0---------0--3----0-------0-----------------0------0---------------]







Luck. Runs. Out. 
Crawl from the wreckage one more time 
Horrific memory twists the mind 
Dark, rugged, cold and hard to turn 
Path of destruction, feel it burn 
Still life 
Incarnation 
Still life 
Infamy 

Hallucination 
Heresy 
Still you run, what's to come? 
What's to be? 

'Cause we hunt you down without mercy 
Hunt you down all nightmare long 
Feel us breathe upon your face 
Feel us shift, every move we trace 
Hunt you down without mercy 
Hunt you down all nightmare long, yeah 
Luck. Runs. 

You crawl back in 
But your luck runs out 

1.2. 

Luck. Runs. Out. 

The light that is not light is here 
To flush you out with your own fear 
You hide, you hide, but will be found 
Release your crypt without a sound 

Still life 
Immolation 
Still life 
Infamy 

Hallucination 
Heresy 
Still you run, what's to come? 
What's to be? 

'Cause we hunt you down without mercy 
Hunt you down all nightmare long 
Feel us breathe upon your face 
Feel us shift, every move we trace 
Hunt you down without mercy 
Hunt you down all nightmare long 
Luck. Runs. 

You crawl back in 
But your luck runs out 

Then you crawl back in 
Into your obsession 
Never to return 
This is your confession 

Hunt you down without mercy 
Hunt you down all nightmare long 
Feel us breathe upon your face 
Feel us shift, every move we trace 
Hunt you down without mercy 
Hunt you down all nightmare long, yeah 
Luck. Runs. 

You crawl back in 
But your luck runs out 

Your luck runs out









---------------


version 5





# harmonics
tr - tremolo picking
~~ - let ring
(Tab is in Drop D btw.)


(this tab does not include solos)

for the most part u should know where the palm mutes go.

e|------------------------------|
b|------------------------------|
g|------------------------------|4x
d|----0--5-6-5-----0-5-------5--|
a|-----------------------------6|
D|-0------------0------3--0-----|

|--------------|
|--------------|
|--------------|2x
|--------------|
|-0----6-5--0-0|
|-0----6-5--0-0|
            * *

|---------------------------------------------------------------|
|---------------------------------------------------------------|
|---------------------------------------------------------------|
|---------------------------------------------------------------|
|-0----6-5--0-0-0-------0----6-5--0-0--0---0-0--0---6-5--0---6-5|
|-0----6-5--0-0-0-------0----6-5--0-0--0---0-0--0---6-5--0---6-5|
            * * *                 * *      * *

|--------------------------------------|
|--------------------------------------|
|--------------------------------------|
|--------------------------------------|
|--------------------------------------|
|000000000000000000000000002/2/3/3/4/4/|
 **************************############

|-------------------------------|
|-------------------------------|
|-------------------------------|
|-------------------------------|4x
|-------------------------------|
|-110-0-0-0-0-0-0-0-0-0-0-0-0-0-|
  *** * * * * * * * * * * * * *
(^^^^^not eleven)
|-----|---------------------------|       |--------------------|
|-----|----------repeat8x---------|       |--------------------|
|-----|---------------------------|+ this |--------------------|
|-----|---------------------------|       |--------------------|
|-----|------1-1---1-1------------|       |-----------1-1---1-1|
|-000-|0-0-0-1-1-0-1-1-222-333-220|       |-000-0-0-0-1-1-0-1-1|
  ***  * * *     *     *** *** ***          *** * * *     *

|--------------------|
|--------------------|
|--------------------|
|--------------------|
|--3h0--5h0--3h0--5h0|
|--3h0--5h0--3h0--5h0|


|------------------------------------------------------------|
|------------------------------------------------------------|
|------------------------------------------------------------|
|---------------------------------------------7-7~-5-5-/1010-|
|-0--0-3---------0--0-3---------0--0-3--------5-5~-3-3-/8-8--|
|-0--0-3-000000--0--0-3-000000--0--0-3-000000----------------|
         ******         ******         ******
|----------------------------------------------------------|
|----------------------------------------------------------|
|----------------------------------------------------------|
|-2---3---6--7-10-101010-101010-101010--1010121212121212---|(1st time)
|-0---1---4--5-8--8-8-8--8-8-8--8-8-8---8-8-101010101010---|
|----------------------------------------------------------|
               *  * * *  * * *  * * *   *  * ***********

|--------------------------------|
|--------------------------------|
|--------------------------------|
|-2---3---6--7----10101010101010-|
|-0---1---4--5----8-8-8-8-8-8-8--|  (2nd time)
|--------------------------------|
                  * * * * * *

 1:41

|-----------------------------------------------------------|
|-----------------------------------------------------------|
|-----------------------------------------------------------|
|-9tr--------------------------------2----------------------|
|----8tr-7tr-5tr 2tr-----------2-3-5---5-3-3h5p3-2----------|
|----------------------3tr-2tr------------------------------|
  most of it is palm muted i believe

|-----------------------------------------------------------|
|-----------------------------------------------------------|
|-----------------------------------------------------------|
|------------------------------------2----------------------|
|------------------------------2-3-5---5-3-3h5p3-2----------|
|---2tr-----------------------------------------------------|

|-------------------------------------------------------------|
|-------------------------------------------------------------|
|-------------------------------------------------------------|
|----(1:52)-----------4-------------4-----------4-------------|
|---------------------222222222-----222222222---2222222-------|
|-------------------------------3tr----------2tr--------3tr---|


|---------------------------------------------------------------------|
|---------------------------------------------------------------------|
|---------------------------------------------------------------------|
|-4--------4--------4--------4----------------------------------------|
|-2--2--3--2--2--3--2--2--3--2--2--3--2-2-2-2-2-0-0-0-2-2-2-2-2-0-0-0-|
|----2--3-----2--3-----2--3-----2--3--2-2-2-2-2-0-0-0-2-2-2-2-2-0-0-0-|
 ^^^^^^^^^^^^^^^^^^^^^^^^^^^^^^^^^^^  * * * * * * * * * * * * * * * *
(the above chord are tremolo picked by one of the guitars)
Chorus
|-----|------------------------------------------------------------|
|-----|------------------------------------------------------------|
|-----|-1010\9-9\7-7-7-----------1010\9-9\5-5-5--4-4---------------|
|-----|-----------------repeat2x-----------------------------------|
|-0-0-|-8-8-\7-7\5-5-5-----------8-8-\7-7\3-3-3--2-2-0-------------|
|-0-0-|----------------------------------------------0-------------|

(LUCK RUNS OUT-TAH)
|-------|
|-------|
|-------|
|-1-1-1-|
|-1-1-1-|
|-1-1-1-|

                                        repeat this 8x
|-------------------------------------|------------------------------|
|-------------------------------------|------------------------------|
|-------------------------------------|------------------------------|
|-------------------------------------|-7-0-8-7--0-7------5----------|
|-7-7-7-7-3-3-3-3-5-5-5-5-2-2-2-2-0---|--------------8--7---8-7-6-5--|
|-7-7-7-7-3-3-3-3-5-5-5-5-2-2-2-2-0---|------------------------------|
  * * * * * * * * * * * * * * * *

solo comes in...

interlude
|-------------------------------------------|
|-------------------------------------------|
|-------------------------------------------|
|-------------------------------------------|repeat 2x
|-12-13-12--------12-13-12------------------|
|-12-12-12-14--0--12-12-12-14--0-0-0-0-0----|
                               * * * * *

|----------------------------------------------------------------|
|----------------------------------------------------------------|
|----------------------------------------------------------------|
|-----------------7-7-7h8-8---------6-6-6h7-6--2-2-2h3-2---------|
|-12-13-12--------7-7-7---7---------6-6-6---6--2-2-2---2---------|
|-12-12-12-14--0--7-7-7---7-7-7-7-7-6-6-6---6--2-2-2---2-2-2-2-2-|
                            * * * *                      * * * *
repeat interlude twice
______________________________________________________________________


|----------------------------------------------|
|----------------------------------------------|
|----------------------------------------------|
|----------------------------------------------|
|----------------------------------------------|
|0000000000000000000000000022222222222222222222|
 **********************************************|

|----------------------------------|
|----------------------------------|
|----------------------------------|
|----------------------------------|
|7---3---5---2---------------------|
|7---3---5---2---------------------|

second solo comes in........


|--------------------------------------------|
|--------------------------------------------|
|--------------------------------------------|
|-----------------------10--9---8---7---8---9| repeat 3x
|-----------------------8---7---6---5---6---7|
|0000000000000000000000----------------------|
 **********************

|-----------------------------|
|-----------------------------|
|-----------------------------|
|-7--6--5--4--5---------------|
|-5--4--3--2--3---------------|
|---------------00000000000000|
                **************
|-------------------------------------------------------------------|
|-------------------------------------------------------------------|
|------------------|                                          |-1---|
|-------------3-2-1|repeat 6x (on the sixth time do not play  |-1---|
|-------------3-2-1|                                          |-1---|
|00000000000003-2-1|
 *************


after chorus then this.......
|----------------------------------------|
|----------------------------------------|
|----------------------------------------|x2
|----------------------------------------|
|-3h0-5h0-3h0-5h0-0-0-3h0-5h0-3h0-5h0-0-0|
|-3h0-5h0-3h0-5h0-0-0-3h0-5h0-3h0-5h0-0-0|

|----------------------------|
|----------------------------|
|----------------------------|
|-----------5-------------5--|x2
|-0--0-3------6-0--0-3------6|
|-0--0-3--0-----0--0-3--0----|

|--------------------------|
|--------------------------|
|--------------------------|
|---0-5-6~~5~~~~~~~---0-5-0|
|-------------------------0|
|-0-----------------0-----0|






Luck. Runs. Out. 
Crawl from the wreckage one more time 
Horrific memory twists the mind 
Dark, rugged, cold and hard to turn 
Path of destruction, feel it burn 
Still life 
Incarnation 
Still life 
Infamy 

Hallucination 
Heresy 
Still you run, what's to come? 
What's to be? 

'Cause we hunt you down without mercy 
Hunt you down all nightmare long 
Feel us breathe upon your face 
Feel us shift, every move we trace 
Hunt you down without mercy 
Hunt you down all nightmare long, yeah 
Luck. Runs. 

You crawl back in 
But your luck runs out 

1.2. 

Luck. Runs. Out. 

The light that is not light is here 
To flush you out with your own fear 
You hide, you hide, but will be found 
Release your crypt without a sound 

Still life 
Immolation 
Still life 
Infamy 

Hallucination 
Heresy 
Still you run, what's to come? 
What's to be? 

'Cause we hunt you down without mercy 
Hunt you down all nightmare long 
Feel us breathe upon your face 
Feel us shift, every move we trace 
Hunt you down without mercy 
Hunt you down all nightmare long 
Luck. Runs. 

You crawl back in 
But your luck runs out 

Then you crawl back in 
Into your obsession 
Never to return 
This is your confession 

Hunt you down without mercy 
Hunt you down all nightmare long 
Feel us breathe upon your face 
Feel us shift, every move we trace 
Hunt you down without mercy 
Hunt you down all nightmare long, yeah 
Luck. Runs. 

You crawl back in 
But your luck runs out 

Your luck runs out









---------------


version 6





Intro
clean
e|-------------------------------|
b|-------------------------------|
g|-------------------------------|x4
d|----0--5-6-5-----0-5--------5--|
a|------------------------------6|
D|-0------------0------3--0------|

distorted
|--------------|
|--------------|
|--------------|x2
|--------------|
|-0----6-5--0-0|
|-0----6-5--0-0|
            + +

|---------------------------------------------------------------|
|---------------------------------------------------------------|
|---------------------------------------------------------------|
|---------------------------------------------------------------|
|-0----6-5--0-0-0-------0----6-5--0-0--0---0-0--0---6-5--0---6-5|
|-0----6-5--0-0-0-------0----6-5--0-0--0---0-0--0---6-5--0---6-5|
            + + +                 + +

|--------------------------------------|
|--------------------------------------|
|--------------------------------------|
|--------------------------------------|
|--------------------------------------|
|000000000000000000000000002^2^3^3^4^4^|
 ++++++++++++++++++++++++++

|-------------------------------|
|-------------------------------|
|-------------------------------|
|-------------------------------|x4
|-------------------------------|
|-110-0-0-0-0-0-0-0-0-0-0-0-0-0-|
  +++ + + + + + + + + + + + + +

Post-Chorus
|----------------------------|    |--------------------|
|----------------------------|    |--------------------|
|----------------------------|x7  |--------------------|
|----------------------------|    |--------------------|
|-----------1-1---1-1--------|    |-----------1-1---1-1|
|-110-0-0-0-1-1-0-1-1-222-333|    |-110-0-0-0-1-1-0-1-1|
  +++ + + +     +     +++ +++       +++ + + +     +

|--------------------|
|--------------------|
|--------------------|
|--------------------|
|--3p0--5p0--3p0--5p0|
|--3p0--5p0--3p0--5p0|

Pre-Chorus+Pre-verse part 1
|------------------------------------------------------------|
|------------------------------------------------------------|
|------------------------------------------------------------|x2 1st time
|---------------------------------------------7-7-7-5-5-/1010|x1 2nd time
|-0--0-3-000000--0--0-3-000000--0--0-3-000000-5-5-5-3-3-/8-8-|
|-0--0-3-000000--0--0-3-000000--0--0-3-000000----------------|
         ++++++         ++++++         ++++++

Pre-chorus+Pre-verse part 2                       1st time only
|-------------------------------------------------------------|
|-------------------------------------------------------------|
|-------------------------------------------------------------|
|-2---3---6---7---10-101010-101010-101010-101012-121212121212-|
|-0---1---4---5---8--8-8-8--8-8-8--8-8-8--8-8-10-101010101010-|
|-------------------------------------------------------------|
                     + + +  + + +  + + +  + + +

rest of the time
|-----------------------------------|
|-----------------------------------|
|-----------------------------------|
|-2---3---6---7---1010101010101010--|
|-0---1---4---5---8-8-8-8-8-8-8-8---|
|-----------------------------------|

Verse
|-----------------------------------------------------------|
|-----------------------------------------------------------|
|-----------------------------------------------------------|
|-9tr----------------------------------2--------------------|
|------8tr-7tr-5tr-2tr-----------2-3-5---5-3-3h5p3-2--------|
|----------------------3333-2tr----------------------2tr----|
                                 + + +   + + +     +

|-------------------------------------------------------------|
|-------------------------------------------------------------|
|-------------------------------------------------------------|
|-------2-------------4---------5---------4---------5---------|
|-2-3-5---5-3-3h5p3---2let ring-3let ring-2let ring-3let ring-|
|-------------------------------------------------------------|
  + + +   + + +
|---------------------------------------------------------------------|
|---------------------------------------------------------------------|
|---------------------------------------------------------------------|
|-4--------4--------4--------4----------------------------------------|
|-2--2--3--2--2--3--2--2--3--2--2--3--5-5-5-5-5-0-0-0-5-5-5-5-5-0-0-0-|
|----2--3-----2--3-----2--3-----2--3--5-5-5-5-5-0-0-0-5-5-5-5-5-0-0-0-|
                                      +++++++++++++++++++++++++++++++
Chorus
|----------------------------------------------------------------|
|----------------------------------------------------------------|
|----------------------------------------------------------------|x4
|------1010-9-9\7------1010-9-9\7------1010-9-9\7----------------|
|-0-0--8-8--7-7\5-0-0--8-8--7-7\5-0-0--8-8--7-7\5-5-5-5-3-3-3-3\2|
|-0-0-------------0-0-------------0-0-------------5-5-5-3-3-3-3\2|

|-------|
|-------|
|-------|
|-1-1-1-|
|-1-1-1-|
|-1-1-1-|

Interlude 1                                repeat section x8
|-------------------------------------|------------------------------|
|-------------------------------------|------------------------------|
|-------------------------------------|------------------------------|
|-------------------------------------|---0-8-7--0-7-3--0-3-2--0-2-0-|
|-7p0003p0005p0002p000-0----3p0005p000|------------------------------|
|-7p0003p0005p0002p000-0----3p0005p000|-0----------------------------|
  ++++++++++++++++++++      ++++++++++

Solo 1
S S S S S S S S S S S S S S S S S S S S S S S S
e|--------------------------------------------------------------------------------------------|
B|--------------------------------------------------------------------------------------------|
G|--------------------------------------------------------------------------------------------|
D|--12-12-12-12-12-12-12-12-12-12-12-12-12-12-0-0-12-12-12-12-0-0-12-12-0-0-------------------|
A|--------------------------------------------------------------------------------------------|
D|--------------------------------------------------------------------------------------------|

S S S S S S S S S S S S S S S S S S S S S S S S S S S S S S S
e|--------------------------------------------------------------------------------------------|
B|--------------------------------------------------------------------------------------------|
G|--------------------------------------------------------------------------------------------|
D|--12-12-12-12-0-0-12-12-12-12-0-0-12-12-0-0-12-0-11-0-10-0-9-0-8-0-7-0-6-0-5----------------|
A|--------------------------------------------------------------------------------------------|
D|--------------------------------------------------------------------------------------------|

E. S S S E. S E Q x3 E. S S S E H
e|-----------------------------|---------------------------------------------------------------|
B|o----------------------5----o|---------------------------------------------------------------|
G|-----------------------5-----|---------------------------------------------------------------|
D|---7--5--7--5--7--5--7-------|---7--5--7--5--7---(7)-----------------------------------------|
A|o---------------------------o|---------------------------------------------------------------|
D|-----------------------------|---------------------------------------------------------------|

S S S S S S S S S S S S S S S S x6
e|---------------------------------------------------------------------------------------------|
B|---------------------------------------------------------------------------------------------|
G|--4--2-----2--4--2--4--2-----2--4--2--4--2-----2---------------------------------------------|
D|--------4-----------------4-----------------4------------------------------------------------|
A|---------------------------------------------------------------------------------------------|
D|---------------------------------------------------------------------------------------------|

S S S S S S E S S E S S E S S S S S S S S S S S S S S S S
e|---------------------------------------------------------------------------------------------|
B|-----------0--5--2--0--6--2--0--7--2--0--8--2--0--0--9--6--0--0--9--5--0--0--9--9--0--0------|
G|--4--2--4------------------------------------------------------------------------------------|
D|---------------------------------------------------------------------------------------------|
A|---------------------------------------------------------------------------------------------|
D|---------------------------------------------------------------------------------------------|

S S S S S T T S S S S S S S S S S S S S S S S S S S S S S
e|--------------------------------------------------------------------------------------------|
B|--9--9--0--0-12--9--0-15-12--0--0-16-13--0--0-17-14--0--0-18-15--0--0-19-16--0--0-20-17-----|
G|--------------------------------------------------------------------------------------------|
D|--------------------------------------------------------------------------------------------|
A|--------------------------------------------------------------------------------------------|
D|--------------------------------------------------------------------------------------------|

S S S S S S S S S S E S S E S S E S S E S S E S S E Q E
e|--------------------------------------------------------------------------------------------|
B|--0--0-21-18--0--0-22--0-22-19--0-22-19--0-22-19--0-22-19--0-22-19--0-22-19-0--22/--(22/)---|
G|--------------------------------------------------------------------------------------------|
D|---


Interlude 2
                    Repeat x2
|------------------------------|
|------------------------------|
|------------------------------|
|-7-8-7-----7-8-7--------------|
|-------8---------8-5----------|
|-0-0-0-0-0-0-0-0-0-0-0-0-0-0-0|
          +           + + + + +
|-----------------------------------------------|
|-----------------------------------------------|
|-----------------------------------------------|repeat whole Interlude x2
|-7-8-7----7--7-7-8-7---6--6-6-7-6--2--2-2-3-2--|
|-------8--7--7-7-8-7---6--6-6-7-6--2--2-2-3-2--|
|-0-0-0-0--7--7-7-8-7---6--6-6-7-6--2--2-2-3-2--|

Pre-solo
|---------------------------------------------------------------|
|---------------------------------------------------------------|
|---------------------------------------------------------------|
|---------------------------------------------------------------|
|---------------------------------------------------------------|
|-00000000000000000000000000000000222222222222222222222222222222|
  ++++++++++++++++++++++++++++++++++++++++++++++++++++++++++++++

Solo 2 (with wah)
S S Q S S Q S S E S S Q S S Q S S E
e|--------------------------------------------------------------------------------------------|
B|--------------------------------------------------------------------------------------------|
G|--3--2-----3--2-----3--2-----3--2-----3--2-----3--2-----------------------------------------|
D|--------2--------2--------2--------2--------2--------2--------------------------------------|
A|--------------------------------------------------------------------------------------------|
D|--------------------------------------------------------------------------------------------|

S S Q S S Q S S E S S Q S S Q S S E
e|--------------------------------------------------------------------------------------------|
B|--------------------------------------------------------------------------------------------|
G|--3--2-----3--2-----3--2-----3--2-----3--2-----3--2-----------------------------------------|
D|--------3--------3--------3--------3--------3--------3--------------------------------------|
A|--------------------------------------------------------------------------------------------|
D|--------------------------------------------------------------------------------------------|

S S S S S S S S S S S S S S S S x4 S S Q S S Q S S S S
e|--------------------------------------------------|------------------------------------------|
B|--------------------------------------------------|------------------------------------------|
G|--5--3--0--0--5--3--0--0--5--3--0--0--5--3--0--0--|-----3--2-----3--2-----3--2---------------|
D|--------------------------------------------------|-----------2--------2--------2--2---------|
A|--------------------------------------------------|------------------------------------------|
D|--------------------------------------------------|------------------------------------------|

S S S S S S S S S S S S S S S S
e|--------------------------------------------------------------------------------------------|
B|--------------------------------------------------------------------------------------------|
G|--3--2--------3--2--------3--2--------3--2--------------------------------------------------|
D|--------2--2--------2--2--------2--2--------2--2--------------------------------------------|
A|--------------------------------------------------------------------------------------------|
D|--------------------------------------------------------------------------------------------|

S S S S S S S S S S S S S S S S
x2
e|--------------------------------------------------------------------------------------------|
B|--------------------------------------------------------------------------------------------|
G|--3--2--------3--2--------3--2--------3--2--------------------------------------------------|
D|--------3--3--------3--3--------3--3--------3--3--------------------------------------------|
A|--------------------------------------------------------------------------------------------|
D|--------------------------------------------------------------------------------------------|

S S S S S S S S S S S S S S S S
x2
e|--------------------------------------------------------------------------------------------|
B|--------------------------------------------------------------------------------------------|
G|--5--3--0--0--5--3--0--0--5--3--0--0--5--3--0--0--------------------------------------------|
D|--------------------------------------------------------------------------------------------|
A|--------------------------------------------------------------------------------------------|
D|--------------------------------------------------------------------------------------------|

S S S S S S S S S S S S S S S S
x2
e|--------------------------------------------------------------------------------------------|
B|--------------------------------------------------------------------------------------------|
G|--------------------------------------------------------------------------------------------|
D|--5--3--0--0--5--3--0--0--5--3--0--0--5--3--0--0--------------------------------------------|
A|--------------------------------------------------------------------------------------------|
D|--------------------------------------------------------------------------------------------|

S S S S S S S S S S S S S S S S S S S S S S S T T
H
e|------------------------------------------------------------12-10----12-14--15tr-19tr--24\--|
B|-10--8-----8--10--8--10--8-----8--10--8--10--8-----8--10/12-------12------------------------|
G|--------9-------------------9-------------------9-------------------------------------------|
D|--------------------------------------------------------------------------------------------|
A|--------------------------------------------------------------------------------------------|

Bridge                          repeat this section x3
|---------------------|---------------------------------------|
|---------------------|---------------------------------------|
|---------------------|---------------------------------------|
|---------------------|-----------------------10-9--8--7--8--9|
|---------------------|-----------------------8--7--6--5--6--7|
|-00000000000000000000|0000000000000000000000-----------------|
  +++++++++++++++++++++++++++++++++++++++++++

                                  repeat this section x6 (don’t last note on
|-----------------------------|------------------| sixth repeat
|-----------------------------|------------------|
|-----------------------------|------------------|
|-7--6--5--4--5---------------|-------------3-2-1|
|-5--4--3--2--3---------------|-------------3-2-1|
|---------------00000000000000|00000000000003-2-1|
                ++++++++++++++++++++++++++++

Outro-first repeat clean part of intro with distortion and wah, then this
|----------------------------------------|
|----------------------------------------|
|----------------------------------------|x2
|----------------------------------------|
|-3p0-5p0-3p0-5p0-0-0-3p0-5p0-3p0-3p0-0-0|
|-3p0-5p0-3p0-5p0-0-0-3p0-5p0-3p0-5p0-0-0|

|--------------|
|--------------|
|--------------|
|-----------5--|x4
|-0--0-3------6|
|-0--0-3--0----|

|--------------------------|
|--------------------------|
|--------------------------|
|---0-5-6-5let-ring---0-5-0|
|-------------------------0|
|-0-----------------0-----0|
                    +
Order of song:
1.Intro
2.Post-chorus
3.Pre-chorus+pre-verse parts 1 and 2
4.Verse
5.Pre-chorus part 2
6.Pre-chorus part 1
7.Pre-chorus part 2
8.Chorus
9.Post-chorus
10.Pre-verse parts 1 and 2
11.Pre-chorus part 2
12.Pre-chorus part 1
13.Pre-chorus part 2
14.Interlude 1
15.Solo 1
16.Interlude 2
17.Solo 2
18.Bridge
19.Chorus
20.Pre-verse part 1
21.Outro







Luck. Runs. Out. 
Crawl from the wreckage one more time 
Horrific memory twists the mind 
Dark, rugged, cold and hard to turn 
Path of destruction, feel it burn 
Still life 
Incarnation 
Still life 
Infamy 

Hallucination 
Heresy 
Still you run, what's to come? 
What's to be? 

'Cause we hunt you down without mercy 
Hunt you down all nightmare long 
Feel us breathe upon your face 
Feel us shift, every move we trace 
Hunt you down without mercy 
Hunt you down all nightmare long, yeah 
Luck. Runs. 

You crawl back in 
But your luck runs out 

1.2. 

Luck. Runs. Out. 

The light that is not light is here 
To flush you out with your own fear 
You hide, you hide, but will be found 
Release your crypt without a sound 

Still life 
Immolation 
Still life 
Infamy 

Hallucination 
Heresy 
Still you run, what's to come? 
What's to be? 

'Cause we hunt you down without mercy 
Hunt you down all nightmare long 
Feel us breathe upon your face 
Feel us shift, every move we trace 
Hunt you down without mercy 
Hunt you down all nightmare long 
Luck. Runs. 

You crawl back in 
But your luck runs out 

Then you crawl back in 
Into your obsession 
Never to return 
This is your confession 

Hunt you down without mercy 
Hunt you down all nightmare long 
Feel us breathe upon your face 
Feel us shift, every move we trace 
Hunt you down without mercy 
Hunt you down all nightmare long, yeah 
Luck. Runs. 

You crawl back in 
But your luck runs out 

Your luck runs out










---------------


version 7




solo



drop d tuning

e|--------------------------------|
b|--------------------------------|
g|--------------------------------|
d|-7-0-7-----5--------------------|
a|-------8-7---8--7-6-5-----------|
D|--------------------------------|


e|--------------------------------|
b|--------------------------------|
g|-7-0-8-7-0-7-----5--------------|repeat
d|-------------8-7---8--7-6-5-----|
a|--------------------------------|
D|--------------------------------|


                                       x6   
e|--------------------------------------------|
b|--------------------------------------------|
g|--------------------------------------------|
d|-/12-12-12-12-12-12-12-12-12-0--/12-12-12-0-|
a|--------------------------------------------|
D|--------------------------------------------|

e|---------------------------------|
b|---------------------------------|
g|---------------------------------|
d|-12h0-11h0-11h0-10h0-9h0-8h0-7h5-|
a|---------------------------------|
D|---------------------------------|


e|--------------------------------|
b|------------------5-------------|
g|------------------5-------------|X4
d|--7-5H7P5-7-5H7P5---------------|
a|--------------------------------|
D|--------------------------------|


e|------------------------------------------------|
b|-(12)/------------------------------------------|
g|--------4h2h0---4h2h0-4h2h0---4h2h0-4h2h0-------|x2
d|--------------4-------------4-------------4-----|
a|------------------------------------------------|
D|------------------------------------------------|


e|--------|
b|--------|
g|-4h2h0--|x8
d|------4-|
a|--------|
D|--------|

e|-------------------------------------------|
b|-------------------------------------------|
g|---4h2h0---4h2h0-4h2h0---4h2h0-4h2h0-------|x2
d|---------4-------------4-------------4-----|
a|-------------------------------------------|
D|-------------------------------------------|

e|------------------------------------------------------------------|
b|-4h1h0-5h2h0-6h3h0-7h4h0-8h5h0-9h6h0-10h7h0-11h8h0-12h9h0-13h10h0-|
g|------------------------------------------------------------------|
d|------------------------------------------------------------------|
a|------------------------------------------------------------------|
D|------------------------------------------------------------------|


e|-10h7--11h8--12h9--13h10--14h11--15h12--16h13--17h14--17h14--17h14--|
b|-----0-----0-----0------0------0------0------0------0------0------0-|
g|--------------------------------------------------------------------|
d|--------------------------------------------------------------------|
a|--------------------------------------------------------------------|
D|--------------------------------------------------------------------|
     X6

e|--17H14---(17)/-20^^^^^---------|
b|--------0-----------------------|
g|--------------------------------|
d|--------------------------------|
a|--------------------------------|
D|------------------------21/-----|


e|--------------------------------|
b|--13/--13-13/-------------------|
g|--12/--12-12/-------------------|X2
d|--------------------------------|
a|--------------------------------|
D|--------------------------------|





Luck. Runs. Out. 
Crawl from the wreckage one more time 
Horrific memory twists the mind 
Dark, rugged, cold and hard to turn 
Path of destruction, feel it burn 
Still life 
Incarnation 
Still life 
Infamy 

Hallucination 
Heresy 
Still you run, what's to come? 
What's to be? 

'Cause we hunt you down without mercy 
Hunt you down all nightmare long 
Feel us breathe upon your face 
Feel us shift, every move we trace 
Hunt you down without mercy 
Hunt you down all nightmare long, yeah 
Luck. Runs. 

You crawl back in 
But your luck runs out 

1.2. 

Luck. Runs. Out. 

The light that is not light is here 
To flush you out with your own fear 
You hide, you hide, but will be found 
Release your crypt without a sound 

Still life 
Immolation 
Still life 
Infamy 

Hallucination 
Heresy 
Still you run, what's to come? 
What's to be? 

'Cause we hunt you down without mercy 
Hunt you down all nightmare long 
Feel us breathe upon your face 
Feel us shift, every move we trace 
Hunt you down without mercy 
Hunt you down all nightmare long 
Luck. Runs. 

You crawl back in 
But your luck runs out 

Then you crawl back in 
Into your obsession 
Never to return 
This is your confession 

Hunt you down without mercy 
Hunt you down all nightmare long 
Feel us breathe upon your face 
Feel us shift, every move we trace 
Hunt you down without mercy 
Hunt you down all nightmare long, yeah 
Luck. Runs. 

You crawl back in 
But your luck runs out 

Your luck runs out







-----
Want More Free Lessons?

Browse through the Archive!

PROBLEM WITH THIS TAB? | VIEW FULL SCREEN | PRINT

AutomotixBuy Event Tickets at TicketCity.com