Lessons/Tabs are sorted alphabetically.

Tab Vault

PROBLEM WITH THIS TAB?   VIEW FULL SCREEN   PRINT

Charlie Brown Theme

Metallica
Charlie Brown Theme by Metallica






                             Charlie Brown Theme








          e-------l--------------------------------------------------|
          B-------l--------------------------------------------------|
          G-0-2-4-l-0-2-4-4-2-0-2-0-0-2-4-4---0-2-4-4-2-0-2-0-0-2-2--|
          D-------l--------------------------------------------------|
          A-------l--------------------------------------------------|
          E-------l--------------------------------------------------|
Play this twice. Do not play the first part on the second time. The first part is just
something Hammett or Hetfield (Not sure who it is but I am sure Kirk did it) does before
starting the song. The first part is blocked...obviously.

          e---------------------------------------|
          B---------------------------------------|Repeat this three times 
          G---2-2-2-4------9h11x4--     the 9h11--|
          D---2-2-2-4-----------------------------|
          A---0-0-0-2-----------------------------|
          E---------------------------------------|







---------------


version 2 









e--------------------------------------------------------
          B------2--2---------------2-2--------2--2----------------
          G--2-4------4-2--4-2--2-4--------2-4------4-2--4-2--2-4-4
          D--------------------------------------------------------
          A--------------------------------------------------------
          E--------------------------------------------------------
          Play twice
                           full
                        ^ ^ ^ ^ ^ ^
          e------------------------
          B---------------7---7---7
          G--2-2-2-4-4--9---9---9--
          D--2-2-2-4-4-------------
          A--0-0-0-2-2-------------
          E------------------------
          play 3 times

            A.H.
          e---
          B--7
          
          at the end of the version I have Kirk hits the F# and does a
          dive on the trem.











-----------
Want More Free Lessons?

Browse through the Archive!

PROBLEM WITH THIS TAB? | VIEW FULL SCREEN | PRINT

Knoxville, Start Saving up to 70% at Half Off Depot. Start Saving Now!Buy Now